  0
SECTION
  2
HEADER
  9
$ACADVER
  1
AC1009
  9
$INSBASE
 10
0.0
 20
0.0
 30
0.0
  9
$EXTMIN
 10
139.061195
 20
32.09426
 30
-17.74122
  9
$EXTMAX
 10
1654.926155
 20
1319.94914
 30
282.13008
  9
$LIMMIN
 10
0.0
 20
0.0
  9
$LIMMAX
 10
1800.0
 20
1368.0
  9
$ORTHOMODE
 70
     0
  9
$REGENMODE
 70
     1
  9
$FILLMODE
 70
     1
  9
$QTEXTMODE
 70
     0
  9
$MIRRTEXT
 70
     0
  9
$DRAGMODE
 70
     2
  9
$LTSCALE
 40
1.0
  9
$OSMODE
 70
     0
  9
$ATTMODE
 70
     1
  9
$TEXTSIZE
 40
1.562401
  9
$TRACEWID
 40
0.05
  9
$TEXTSTYLE
  7
STANDARD
  9
$CLAYER
  8
0
  9
$CELTYPE
  6
BYLAYER
  9
$CECOLOR
 62
   256
  9
$DIMSCALE
 40
1.0
  9
$DIMASZ
 40
0.18
  9
$DIMEXO
 40
0.0625
  9
$DIMDLI
 40
0.38
  9
$DIMRND
 40
0.0
  9
$DIMDLE
 40
0.0
  9
$DIMEXE
 40
0.18
  9
$DIMTP
 40
0.0
  9
$DIMTM
 40
0.0
  9
$DIMTXT
 40
0.18
  9
$DIMCEN
 40
0.09
  9
$DIMTSZ
 40
0.0
  9
$DIMTOL
 70
     0
  9
$DIMLIM
 70
     0
  9
$DIMTIH
 70
     1
  9
$DIMTOH
 70
     1
  9
$DIMSE1
 70
     0
  9
$DIMSE2
 70
     0
  9
$DIMTAD
 70
     0
  9
$DIMZIN
 70
     0
  9
$DIMBLK
  1

  9
$DIMASO
 70
     1
  9
$DIMSHO
 70
     0
  9
$DIMPOST
  1

  9
$DIMAPOST
  1

  9
$DIMALT
 70
     0
  9
$DIMALTD
 70
     2
  9
$DIMALTF
 40
25.4
  9
$DIMLFAC
 40
1.0
  9
$DIMTOFL
 70
     0
  9
$DIMTVP
 40
0.0
  9
$DIMTIX
 70
     0
  9
$DIMSOXD
 70
     0
  9
$DIMSAH
 70
     0
  9
$DIMBLK1
  1

  9
$DIMBLK2
  1

  9
$DIMSTYLE
  2
*UNNAMED
  9
$DIMCLRD
 70
     0
  9
$DIMCLRE
 70
     0
  9
$DIMCLRT
 70
     0
  9
$DIMTFAC
 40
1.0
  9
$DIMGAP
 40
0.09
  9
$LUNITS
 70
     3
  9
$LUPREC
 70
     0
  9
$SKETCHINC
 40
0.1
  9
$FILLETRAD
 40
0.0
  9
$AUNITS
 70
     0
  9
$AUPREC
 70
     0
  9
$MENU
  1
acad
  9
$ELEVATION
 40
0.0
  9
$PELEVATION
 40
0.0
  9
$THICKNESS
 40
0.0
  9
$LIMCHECK
 70
     0
  9
$BLIPMODE
 70
     0
  9
$CHAMFERA
 40
0.0
  9
$CHAMFERB
 40
0.0
  9
$SKPOLY
 70
     0
  9
$TDCREATE
 40
2448105.493697685
  9
$TDUPDATE
 40
2449029.706503368
  9
$TDINDWG
 40
0.0075576042
  9
$TDUSRTIMER
 40
0.0075576042
  9
$USRTIMER
 70
     1
  9
$ANGBASE
 50
0.0
  9
$ANGDIR
 70
     0
  9
$PDMODE
 70
     1
  9
$PDSIZE
 40
0.0
  9
$PLINEWID
 40
0.0
  9
$COORDS
 70
     2
  9
$SPLFRAME
 70
     0
  9
$SPLINETYPE
 70
     6
  9
$SPLINESEGS
 70
     8
  9
$ATTDIA
 70
     0
  9
$ATTREQ
 70
     1
  9
$HANDLING
 70
     1
  9
$HANDSEED
  5
39D
  9
$SURFTAB1
 70
    20
  9
$SURFTAB2
 70
     6
  9
$SURFTYPE
 70
     8
  9
$SURFU
 70
     6
  9
$SURFV
 70
     6
  9
$UCSNAME
  2

  9
$UCSORG
 10
0.0
 20
0.0
 30
0.0
  9
$UCSXDIR
 10
1.0
 20
0.0
 30
0.0
  9
$UCSYDIR
 10
0.0
 20
1.0
 30
0.0
  9
$PUCSNAME
  2

  9
$PUCSORG
 10
0.0
 20
0.0
 30
0.0
  9
$PUCSXDIR
 10
1.0
 20
0.0
 30
0.0
  9
$PUCSYDIR
 10
0.0
 20
1.0
 30
0.0
  9
$USERI1
 70
     0
  9
$USERI2
 70
     0
  9
$USERI3
 70
     0
  9
$USERI4
 70
     0
  9
$USERI5
 70
     0
  9
$USERR1
 40
0.0
  9
$USERR2
 40
0.0
  9
$USERR3
 40
0.0
  9
$USERR4
 40
0.0
  9
$USERR5
 40
0.0
  9
$WORLDVIEW
 70
     0
  9
$SHADEDGE
 70
     3
  9
$SHADEDIF
 70
    70
  9
$TILEMODE
 70
     1
  9
$MAXACTVP
 70
    16
  9
$PINSBASE
 10
0.0
 20
0.0
 30
0.0
  9
$PLIMCHECK
 70
     0
  9
$PEXTMIN
 10
1.000000E+20
 20
1.000000E+20
 30
1.000000E+20
  9
$PEXTMAX
 10
-1.000000E+20
 20
-1.000000E+20
 30
-1.000000E+20
  9
$PLIMMIN
 10
0.0
 20
0.0
  9
$PLIMMAX
 10
12.0
 20
9.0
  9
$UNITMODE
 70
     0
  9
$VISRETAIN
 70
     0
  9
$PLINEGEN
 70
     0
  9
$PSLTSCALE
 70
     0
  9
$TREEDEPTH
 70
  3020
  9
$DWGCODEPAGE
  3
undefined
  0
ENDSEC
  0
SECTION
  2
TABLES
  0
TABLE
  2
VPORT
 70
     2
  0
VPORT
  2
*ACTIVE
 70
     0
 10
0.0
 20
0.0
 11
1.0
 21
1.0
 12
1039.231924
 22
676.0217
 13
0.0
 23
0.0
 14
24.0
 24
24.0
 15
24.0
 25
24.0
 16
0.0
 26
0.0
 36
1.0
 17
0.0
 27
0.0
 37
0.0
 40
1287.85488
 41
1.397938
 42
50.0
 43
0.0
 44
0.0
 50
0.0
 51
0.0
 71
     0
 72
   400
 73
     1
 74
     3
 75
     0
 76
     1
 77
     0
 78
     0
  0
ENDTAB
  0
TABLE
  2
LTYPE
 70
     1
  0
LTYPE
  2
CONTINUOUS
 70
    64
  3
Solid line
 72
    65
 73
     0
 40
0.0
  0
ENDTAB
  0
TABLE
  2
LAYER
 70
     5
  0
LAYER
  2
0
 70
    64
 62
     7
  6
CONTINUOUS
  0
LAYER
  2
WINGS
 70
    64
 62
     4
  6
CONTINUOUS
  0
LAYER
  2
BODY
 70
    64
 62
     4
  6
CONTINUOUS
  0
LAYER
  2
TAIL
 70
    64
 62
     4
  6
CONTINUOUS
  0
LAYER
  2
ASHADE
 70
    64
 62
     7
  6
CONTINUOUS
  0
ENDTAB
  0
TABLE
  2
STYLE
 70
     2
  0
STYLE
  2
STANDARD
 70
     0
 40
0.0
 41
1.0
 50
0.0
 71
     0
 42
1.562401
  3
simplex
  4

  0
STYLE
  2
ASHADE
 70
     0
 40
0.2
 41
1.0
 50
0.0
 71
     0
 42
1.562401
  3
simplex
  4

  0
ENDTAB
  0
TABLE
  2
VIEW
 70
     0
  0
ENDTAB
  0
TABLE
  2
UCS
 70
     0
  0
ENDTAB
  0
TABLE
  2
APPID
 70
     2
  0
APPID
  2
ACAD
 70
    64
  0
APPID
  2
AVE_RENDER
 70
    64
  0
ENDTAB
  0
TABLE
  2
DIMSTYLE
 70
     0
  0
ENDTAB
  0
ENDSEC
  0
SECTION
  2
BLOCKS
  0
BLOCK
  8
0
  5
92
  2
HALF-PLANE
 70
    64
 10
0.0
 20
0.0
 30
0.0
  3
HALF-PLANE
  0
POLYLINE
  8
BODY
  5
93
 66
     1
 10
0.0
 20
0.0
 30
0.0
 70
    16
 71
    11
 72
     7
  0
VERTEX
  8
BODY
  5
94
 10
0.0
 20
13.0
 30
-0.207215
 70
    64
  0
VERTEX
  8
BODY
  5
95
 10
0.0
 20
14.0
 30
0.046075
 70
    64
  0
VERTEX
  8
BODY
  5
96
 10
0.0
 20
15.0
 30
0.268308
 70
    64
  0
VERTEX
  8
BODY
  5
97
 10
0.0
 20
16.0
 30
0.59184
 70
    64
  0
VERTEX
  8
BODY
  5
98
 10
0.0
 20
17.0
 30
1.406302
 70
    64
  0
VERTEX
  8
BODY
  5
99
 10
0.0
 20
18.0
 30
1.815354
 70
    64
  0
VERTEX
  8
BODY
  5
9A
 10
0.0
 20
18.70018
 30
2.10769
 70
    64
  0
VERTEX
  8
BODY
  5
9B
 10
-0.4394
 20
13.0
 30
-0.13762
 70
    64
  0
VERTEX
  8
BODY
  5
9C
 10
-0.400265
 20
14.0
 30
0.109471
 70
    64
  0
VERTEX
  8
BODY
  5
9D
 10
-0.365928
 20
15.0
 30
0.326265
 70
    64
  0
VERTEX
  8
BODY
  5
9E
 10
-0.315939
 20
16.0
 30
0.64188
 70
    64
  0
VERTEX
  8
BODY
  5
9F
 10
-0.190098
 20
17.0
 30
1.436411
 70
    64
  0
VERTEX
  8
BODY
  5
A0
 10
-0.126896
 20
18.0
 30
1.835452
 70
    64
  0
VERTEX
  8
BODY
  5
A1
 10
-0.08171
 20
18.700052
 30
2.12075
 70
    64
  0
VERTEX
  8
BODY
  5
A2
 10
-0.835789
 20
13.0
 30
0.06435
 70
    64
  0
VERTEX
  8
BODY
  5
A3
 10
-0.761349
 20
14.0
 30
0.293452
 70
    64
  0
VERTEX
  8
BODY
  5
A4
 10
-0.696037
 20
15.0
 30
0.494464
 70
    64
  0
VERTEX
  8
BODY
  5
A5
 10
-0.600953
 20
16.0
 30
0.787102
 70
    64
  0
VERTEX
  8
BODY
  5
A6
 10
-0.361589
 20
17.0
 30
1.523789
 70
    64
  0
VERTEX
  8
BODY
  5
A7
 10
-0.241371
 20
18.0
 30
1.89378
 70
    64
  0
VERTEX
  8
BODY
  5
A8
 10
-0.155421
 20
18.700052
 30
2.158308
 70
    64
  0
VERTEX
  8
BODY
  5
A9
 10
-1.150365
 20
13.0
 30
0.378926
 70
    64
  0
VERTEX
  8
BODY
  5
AA
 10
-1.047908
 20
14.0
 30
0.580011
 70
    64
  0
VERTEX
  8
BODY
  5
AB
 10
-0.958013
 20
15.0
 30
0.75644
 70
    64
  0
VERTEX
  8
BODY
  5
AC
 10
-0.827141
 20
16.0
 30
1.01329
 70
    64
  0
VERTEX
  8
BODY
  5
AD
 10
-0.497684
 20
17.0
 30
1.659885
 70
    64
  0
VERTEX
  8
BODY
  5
AE
 10
-0.332219
 20
18.0
 30
1.984628
 70
    64
  0
VERTEX
  8
BODY
  5
AF
 10
-0.213919
 20
18.700052
 30
2.216805
 70
    64
  0
VERTEX
  8
BODY
  5
B0
 10
-1.352336
 20
13.0
 30
0.775315
 70
    64
  0
VERTEX
  8
BODY
  5
B1
 10
-1.231889
 20
14.0
 30
0.941095
 70
    64
  0
VERTEX
  8
BODY
  5
B2
 10
-1.126211
 20
15.0
 30
1.086548
 70
    64
  0
VERTEX
  8
BODY
  5
B3
 10
-0.972362
 20
16.0
 30
1.298303
 70
    64
  0
VERTEX
  8
BODY
  5
B4
 10
-0.585063
 20
17.0
 30
1.831375
 70
    64
  0
VERTEX
  8
BODY
  5
B5
 10
-0.390547
 20
18.0
 30
2.099103
 70
    64
  0
VERTEX
  8
BODY
  5
B6
 10
-0.251477
 20
18.700052
 30
2.290517
 70
    64
  0
VERTEX
  8
BODY
  5
B7
 10
-1.42193
 20
13.0
 30
1.214716
 70
    64
  0
VERTEX
  8
BODY
  5
B8
 10
-1.295285
 20
14.0
 30
1.34136
 70
    64
  0
VERTEX
  8
BODY
  5
B9
 10
-1.184169
 20
15.0
 30
1.452477
 70
    64
  0
VERTEX
  8
BODY
  5
BA
 10
-1.022402
 20
16.0
 30
1.614243
 70
    64
  0
VERTEX
  8
BODY
  5
BB
 10
-0.615172
 20
17.0
 30
2.021474
 70
    64
  0
VERTEX
  8
BODY
  5
BC
 10
-0.410646
 20
18.0
 30
2.226
 70
    64
  0
VERTEX
  8
BODY
  5
BD
 10
-0.264419
 20
18.700052
 30
2.372227
 70
    64
  0
VERTEX
  8
BODY
  5
BE
 10
-1.352336
 20
13.0
 30
1.654116
 70
    64
  0
VERTEX
  8
BODY
  5
BF
 10
-1.231889
 20
14.0
 30
1.741626
 70
    64
  0
VERTEX
  8
BODY
  5
C0
 10
-1.126211
 20
15.0
 30
1.818405
 70
    64
  0
VERTEX
  8
BODY
  5
C1
 10
-0.972362
 20
16.0
 30
1.930183
 70
    64
  0
VERTEX
  8
BODY
  5
C2
 10
-0.585063
 20
17.0
 30
2.211573
 70
    64
  0
VERTEX
  8
BODY
  5
C3
 10
-0.390547
 20
18.0
 30
2.352896
 70
    64
  0
VERTEX
  8
BODY
  5
C4
 10
-0.251477
 20
18.700052
 30
2.453937
 70
    64
  0
VERTEX
  8
BODY
  5
C5
 10
-1.150365
 20
13.0
 30
2.050505
 70
    64
  0
VERTEX
  8
BODY
  5
C6
 10
-1.047908
 20
14.0
 30
2.10271
 70
    64
  0
VERTEX
  8
BODY
  5
C7
 10
-0.958013
 20
15.0
 30
2.148514
 70
    64
  0
VERTEX
  8
BODY
  5
C8
 10
-0.827141
 20
16.0
 30
2.215196
 70
    64
  0
VERTEX
  8
BODY
  5
C9
 10
-0.497684
 20
17.0
 30
2.383063
 70
    64
  0
VERTEX
  8
BODY
  5
CA
 10
-0.332219
 20
18.0
 30
2.467371
 70
    64
  0
VERTEX
  8
BODY
  5
CB
 10
-0.213919
 20
18.700052
 30
2.527648
 70
    64
  0
VERTEX
  8
BODY
  5
CC
 10
-0.835789
 20
13.0
 30
2.365081
 70
    64
  0
VERTEX
  8
BODY
  5
CD
 10
-0.761349
 20
14.0
 30
2.389268
 70
    64
  0
VERTEX
  8
BODY
  5
CE
 10
-0.696037
 20
15.0
 30
2.41049
 70
    64
  0
VERTEX
  8
BODY
  5
CF
 10
-0.600953
 20
16.0
 30
2.441384
 70
    64
  0
VERTEX
  8
BODY
  5
D0
 10
-0.361589
 20
17.0
 30
2.519158
 70
    64
  0
VERTEX
  8
BODY
  5
D1
 10
-0.241371
 20
18.0
 30
2.558219
 70
    64
  0
VERTEX
  8
BODY
  5
D2
 10
-0.155421
 20
18.700052
 30
2.586146
 70
    64
  0
VERTEX
  8
BODY
  5
D3
 10
-0.4394
 20
13.0
 30
2.567052
 70
    64
  0
VERTEX
  8
BODY
  5
D4
 10
-0.400265
 20
14.0
 30
2.57325
 70
    64
  0
VERTEX
  8
BODY
  5
D5
 10
-0.365928
 20
15.0
 30
2.578688
 70
    64
  0
VERTEX
  8
BODY
  5
D6
 10
-0.315939
 20
16.0
 30
2.586606
 70
    64
  0
VERTEX
  8
BODY
  5
D7
 10
-0.190098
 20
17.0
 30
2.606537
 70
    64
  0
VERTEX
  8
BODY
  5
D8
 10
-0.126896
 20
18.0
 30
2.616547
 70
    64
  0
VERTEX
  8
BODY
  5
D9
 10
-0.08171
 20
18.700052
 30
2.623704
 70
    64
  0
VERTEX
  8
BODY
  5
DA
 10
0.0
 20
13.0
 30
2.636646
 70
    64
  0
VERTEX
  8
BODY
  5
DB
 10
0.0
 20
14.0
 30
2.636646
 70
    64
  0
VERTEX
  8
BODY
  5
DC
 10
0.0
 20
15.0
 30
2.636646
 70
    64
  0
VERTEX
  8
BODY
  5
DD
 10
0.0
 20
16.0
 30
2.636646
 70
    64
  0
VERTEX
  8
BODY
  5
DE
 10
0.0
 20
17.0
 30
2.636646
 70
    64
  0
VERTEX
  8
BODY
  5
DF
 10
0.0
 20
18.0
 30
2.636646
 70
    64
  0
VERTEX
  8
BODY
  5
E0
 10
0.0
 20
18.70018
 30
2.636764
 70
    64
  0
SEQEND
  8
BODY
  5
E1
  0
POLYLINE
  8
BODY
  5
E2
 66
     1
 10
0.0
 20
0.0
 30
0.0
 70
    16
 71
    11
 72
     4
  0
VERTEX
  8
BODY
  5
E3
 10
0.0
 20
-1.0
 30
0.284595
 70
    64
  0
VERTEX
  8
BODY
  5
E4
 10
0.0
 20
0.0
 30
0.0
 70
    64
  0
VERTEX
  8
BODY
  5
E5
 10
0.0
 20
1.0
 30
-0.160983
 70
    64
  0
VERTEX
  8
BODY
  5
E6
 10
0.0
 20
2.0
 30
-0.207215
 70
    64
  0
VERTEX
  8
BODY
  5
E7
 10
-0.17576
 20
-1.0
 30
0.312432
 70
    64
  0
VERTEX
  8
BODY
  5
E8
 10
-0.307262
 20
0.0
 30
0.048666
 70
    64
  0
VERTEX
  8
BODY
  5
E9
 10
-0.403971
 20
1.0
 30
-0.097
 70
    64
  0
VERTEX
  8
BODY
  5
EA
 10
-0.4394
 20
2.0
 30
-0.13762
 70
    64
  0
VERTEX
  8
BODY
  5
EB
 10
-0.334316
 20
-1.0
 30
0.39322
 70
    64
  0
VERTEX
  8
BODY
  5
EC
 10
-0.584447
 20
0.0
 30
0.189898
 70
    64
  0
VERTEX
  8
BODY
  5
ED
 10
-0.768399
 20
1.0
 30
0.088685
 70
    64
  0
VERTEX
  8
BODY
  5
EE
 10
-0.835789
 20
2.0
 30
0.06435
 70
    64
  0
VERTEX
  8
BODY
  5
EF
 10
-0.460146
 20
-1.0
 30
0.519051
 70
    64
  0
VERTEX
  8
BODY
  5
F0
 10
-0.804422
 20
0.0
 30
0.409874
 70
    64
  0
VERTEX
  8
BODY
  5
F1
 10
-1.057611
 20
1.0
 30
0.377897
 70
    64
  0
VERTEX
  8
BODY
  5
F2
 10
-1.150365
 20
2.0
 30
0.378926
 70
    64
  0
VERTEX
  8
BODY
  5
F3
 10
-0.540934
 20
-1.0
 30
0.677606
 70
    64
  0
VERTEX
  8
BODY
  5
F4
 10
-0.945655
 20
0.0
 30
0.687059
 70
    64
  0
VERTEX
  8
BODY
  5
F5
 10
-1.243296
 20
1.0
 30
0.742325
 70
    64
  0
VERTEX
  8
BODY
  5
F6
 10
-1.352336
 20
2.0
 30
0.775315
 70
    64
  0
VERTEX
  8
BODY
  5
F7
 10
-0.568772
 20
-1.0
 30
0.853367
 70
    64
  0
VERTEX
  8
BODY
  5
F8
 10
-0.99432
 20
0.0
 30
0.994321
 70
    64
  0
VERTEX
  8
BODY
  5
F9
 10
-1.307279
 20
1.0
 30
1.146296
 70
    64
  0
VERTEX
  8
BODY
  5
FA
 10
-1.42193
 20
2.0
 30
1.214716
 70
    64
  0
VERTEX
  8
BODY
  5
FB
 10
-0.540934
 20
-1.0
 30
1.029127
 70
    64
  0
VERTEX
  8
BODY
  5
FC
 10
-0.945655
 20
0.0
 30
1.301583
 70
    64
  0
VERTEX
  8
BODY
  5
FD
 10
-1.243296
 20
1.0
 30
1.550268
 70
    64
  0
VERTEX
  8
BODY
  5
FE
 10
-1.352336
 20
2.0
 30
1.654116
 70
    64
  0
VERTEX
  8
BODY
  5
FF
 10
-0.460146
 20
-1.0
 30
1.187683
 70
    64
  0
VERTEX
  8
BODY
  5
100
 10
-0.804422
 20
0.0
 30
1.578768
 70
    64
  0
VERTEX
  8
BODY
  5
101
 10
-1.057611
 20
1.0
 30
1.914696
 70
    64
  0
VERTEX
  8
BODY
  5
102
 10
-1.150365
 20
2.0
 30
2.050505
 70
    64
  0
VERTEX
  8
BODY
  5
103
 10
-0.334316
 20
-1.0
 30
1.313513
 70
    64
  0
VERTEX
  8
BODY
  5
104
 10
-0.584447
 20
0.0
 30
1.798743
 70
    64
  0
VERTEX
  8
BODY
  5
105
 10
-0.768399
 20
1.0
 30
2.203907
 70
    64
  0
VERTEX
  8
BODY
  5
106
 10
-0.835789
 20
2.0
 30
2.365081
 70
    64
  0
VERTEX
  8
BODY
  5
107
 10
-0.17576
 20
-1.0
 30
1.394301
 70
    64
  0
VERTEX
  8
BODY
  5
108
 10
-0.307262
 20
0.0
 30
1.939976
 70
    64
  0
VERTEX
  8
BODY
  5
109
 10
-0.403971
 20
1.0
 30
2.389593
 70
    64
  0
VERTEX
  8
BODY
  5
10A
 10
-0.4394
 20
2.0
 30
2.567052
 70
    64
  0
VERTEX
  8
BODY
  5
10B
 10
0.0
 20
-1.0
 30
1.422139
 70
    64
  0
VERTEX
  8
BODY
  5
10C
 10
0.0
 20
0.0
 30
1.988642
 70
    64
  0
VERTEX
  8
BODY
  5
10D
 10
0.0
 20
1.0
 30
2.453576
 70
    64
  0
VERTEX
  8
BODY
  5
10E
 10
0.0
 20
2.0
 30
2.636646
 70
    64
  0
SEQEND
  8
BODY
  5
10F
  0
POLYLINE
  8
BODY
  5
110
 66
     1
 10
0.0
 20
0.0
 30
0.0
 70
    16
 71
    11
 72
     6
  0
VERTEX
  8
BODY
  5
111
 10
0.0
 20
5.0
 30
-0.207215
 70
    64
  0
VERTEX
  8
BODY
  5
112
 10
0.0
 20
6.0
 30
-0.295687
 70
    64
  0
VERTEX
  8
BODY
  5
113
 10
0.0
 20
7.0
 30
-0.295687
 70
    64
  0
VERTEX
  8
BODY
  5
114
 10
0.0
 20
8.0
 30
-0.295687
 70
    64
  0
VERTEX
  8
BODY
  5
115
 10
0.0
 20
9.0
 30
-0.295687
 70
    64
  0
VERTEX
  8
BODY
  5
116
 10
0.0
 20
10.0
 30
-0.207215
 70
    64
  0
VERTEX
  8
BODY
  5
117
 10
-0.4394
 20
5.0
 30
-0.13762
 70
    64
  0
VERTEX
  8
BODY
  5
118
 10
-0.519944
 20
6.0
 30
-0.287089
 70
    64
  0
VERTEX
  8
BODY
  5
119
 10
-0.519944
 20
7.0
 30
-0.287089
 70
    64
  0
VERTEX
  8
BODY
  5
11A
 10
-0.519944
 20
8.0
 30
-0.287089
 70
    64
  0
VERTEX
  8
BODY
  5
11B
 10
-0.519944
 20
9.0
 30
-0.287089
 70
    64
  0
VERTEX
  8
BODY
  5
11C
 10
-0.4394
 20
10.0
 30
-0.13762
 70
    64
  0
VERTEX
  8
BODY
  5
11D
 10
-0.835789
 20
5.0
 30
0.06435
 70
    64
  0
VERTEX
  8
BODY
  5
11E
 10
-1.032015
 20
6.0
 30
-0.207575
 70
    64
  0
VERTEX
  8
BODY
  5
11F
 10
-1.032015
 20
7.0
 30
-0.207575
 70
    64
  0
VERTEX
  8
BODY
  5
120
 10
-1.032015
 20
8.0
 30
-0.207575
 70
    64
  0
VERTEX
  8
BODY
  5
121
 10
-1.032015
 20
9.0
 30
-0.207575
 70
    64
  0
VERTEX
  8
BODY
  5
122
 10
-0.835789
 20
10.0
 30
0.06435
 70
    64
  0
VERTEX
  8
BODY
  5
123
 10
-1.150365
 20
5.0
 30
0.378926
 70
    64
  0
VERTEX
  8
BODY
  5
124
 10
-1.333675
 20
6.0
 30
0.1797
 70
    64
  0
VERTEX
  8
BODY
  5
125
 10
-1.333675
 20
7.0
 30
0.1797
 70
    64
  0
VERTEX
  8
BODY
  5
126
 10
-1.333675
 20
8.0
 30
0.1797
 70
    64
  0
VERTEX
  8
BODY
  5
127
 10
-1.333675
 20
9.0
 30
0.1797
 70
    64
  0
VERTEX
  8
BODY
  5
128
 10
-1.150365
 20
10.0
 30
0.378926
 70
    64
  0
VERTEX
  8
BODY
  5
129
 10
-1.352336
 20
5.0
 30
0.775315
 70
    64
  0
VERTEX
  8
BODY
  5
12A
 10
-1.397193
 20
6.0
 30
0.695264
 70
    64
  0
VERTEX
  8
BODY
  5
12B
 10
-1.397193
 20
7.0
 30
0.695264
 70
    64
  0
VERTEX
  8
BODY
  5
12C
 10
-1.397193
 20
8.0
 30
0.695264
 70
    64
  0
VERTEX
  8
BODY
  5
12D
 10
-1.397193
 20
9.0
 30
0.695264
 70
    64
  0
VERTEX
  8
BODY
  5
12E
 10
-1.352336
 20
10.0
 30
0.775315
 70
    64
  0
VERTEX
  8
BODY
  5
12F
 10
-1.42193
 20
5.0
 30
1.214716
 70
    64
  0
VERTEX
  8
BODY
  5
130
 10
-1.42193
 20
6.0
 30
1.214716
 70
    64
  0
VERTEX
  8
BODY
  5
131
 10
-1.42193
 20
7.0
 30
1.214716
 70
    64
  0
VERTEX
  8
BODY
  5
132
 10
-1.42193
 20
8.0
 30
1.214716
 70
    64
  0
VERTEX
  8
BODY
  5
133
 10
-1.42193
 20
9.0
 30
1.214716
 70
    64
  0
VERTEX
  8
BODY
  5
134
 10
-1.42193
 20
10.0
 30
1.214716
 70
    64
  0
VERTEX
  8
BODY
  5
135
 10
-1.352336
 20
5.0
 30
1.654116
 70
    64
  0
VERTEX
  8
BODY
  5
136
 10
-1.352336
 20
6.0
 30
1.654116
 70
    64
  0
VERTEX
  8
BODY
  5
137
 10
-1.352336
 20
7.0
 30
1.654116
 70
    64
  0
VERTEX
  8
BODY
  5
138
 10
-1.352336
 20
8.0
 30
1.654116
 70
    64
  0
VERTEX
  8
BODY
  5
139
 10
-1.352336
 20
9.0
 30
1.654116
 70
    64
  0
VERTEX
  8
BODY
  5
13A
 10
-1.352336
 20
10.0
 30
1.654116
 70
    64
  0
VERTEX
  8
BODY
  5
13B
 10
-1.150365
 20
5.0
 30
2.050505
 70
    64
  0
VERTEX
  8
BODY
  5
13C
 10
-1.150365
 20
6.0
 30
2.050505
 70
    64
  0
VERTEX
  8
BODY
  5
13D
 10
-1.150365
 20
7.0
 30
2.050505
 70
    64
  0
VERTEX
  8
BODY
  5
13E
 10
-1.150365
 20
8.0
 30
2.050505
 70
    64
  0
VERTEX
  8
BODY
  5
13F
 10
-1.150365
 20
9.0
 30
2.050505
 70
    64
  0
VERTEX
  8
BODY
  5
140
 10
-1.150365
 20
10.0
 30
2.050505
 70
    64
  0
VERTEX
  8
BODY
  5
141
 10
-0.835789
 20
5.0
 30
2.365081
 70
    64
  0
VERTEX
  8
BODY
  5
142
 10
-0.835789
 20
6.0
 30
2.365081
 70
    64
  0
VERTEX
  8
BODY
  5
143
 10
-0.835789
 20
7.0
 30
2.365081
 70
    64
  0
VERTEX
  8
BODY
  5
144
 10
-0.835789
 20
8.0
 30
2.365081
 70
    64
  0
VERTEX
  8
BODY
  5
145
 10
-0.835789
 20
9.0
 30
2.365081
 70
    64
  0
VERTEX
  8
BODY
  5
146
 10
-0.835789
 20
10.0
 30
2.365081
 70
    64
  0
VERTEX
  8
BODY
  5
147
 10
-0.4394
 20
5.0
 30
2.567052
 70
    64
  0
VERTEX
  8
BODY
  5
148
 10
-0.4394
 20
6.0
 30
2.567052
 70
    64
  0
VERTEX
  8
BODY
  5
149
 10
-0.4394
 20
7.0
 30
2.567052
 70
    64
  0
VERTEX
  8
BODY
  5
14A
 10
-0.4394
 20
8.0
 30
2.567052
 70
    64
  0
VERTEX
  8
BODY
  5
14B
 10
-0.4394
 20
9.0
 30
2.567052
 70
    64
  0
VERTEX
  8
BODY
  5
14C
 10
-0.4394
 20
10.0
 30
2.567052
 70
    64
  0
VERTEX
  8
BODY
  5
14D
 10
0.0
 20
5.0
 30
2.636646
 70
    64
  0
VERTEX
  8
BODY
  5
14E
 10
0.0
 20
6.0
 30
2.636646
 70
    64
  0
VERTEX
  8
BODY
  5
14F
 10
0.0
 20
7.0
 30
2.636646
 70
    64
  0
VERTEX
  8
BODY
  5
150
 10
0.0
 20
8.0
 30
2.636646
 70
    64
  0
VERTEX
  8
BODY
  5
151
 10
0.0
 20
9.0
 30
2.636646
 70
    64
  0
VERTEX
  8
BODY
  5
152
 10
0.0
 20
10.0
 30
2.636646
 70
    64
  0
SEQEND
  8
BODY
  5
153
  0
POLYLINE
  8
BODY
  5
154
 66
     1
 10
0.0
 20
0.0
 30
0.0
 70
    16
 71
    11
 72
     4
  0
VERTEX
  8
BODY
  5
155
 10
0.0
 20
2.0
 30
-0.207215
 70
    64
  0
VERTEX
  8
BODY
  5
156
 10
0.0
 20
3.0
 30
-0.207215
 70
    64
  0
VERTEX
  8
BODY
  5
157
 10
0.0
 20
4.0
 30
-0.207215
 70
    64
  0
VERTEX
  8
BODY
  5
158
 10
0.0
 20
5.0
 30
-0.207215
 70
    64
  0
VERTEX
  8
BODY
  5
159
 10
-0.4394
 20
2.0
 30
-0.13762
 70
    64
  0
VERTEX
  8
BODY
  5
15A
 10
-0.4394
 20
3.0
 30
-0.13762
 70
    64
  0
VERTEX
  8
BODY
  5
15B
 10
-0.4394
 20
4.0
 30
-0.13762
 70
    64
  0
VERTEX
  8
BODY
  5
15C
 10
-0.4394
 20
5.0
 30
-0.13762
 70
    64
  0
VERTEX
  8
BODY
  5
15D
 10
-0.835789
 20
2.0
 30
0.06435
 70
    64
  0
VERTEX
  8
BODY
  5
15E
 10
-0.835789
 20
3.0
 30
0.06435
 70
    64
  0
VERTEX
  8
BODY
  5
15F
 10
-0.835789
 20
4.0
 30
0.06435
 70
    64
  0
VERTEX
  8
BODY
  5
160
 10
-0.835789
 20
5.0
 30
0.06435
 70
    64
  0
VERTEX
  8
BODY
  5
161
 10
-1.150365
 20
2.0
 30
0.378926
 70
    64
  0
VERTEX
  8
BODY
  5
162
 10
-1.150365
 20
3.0
 30
0.378926
 70
    64
  0
VERTEX
  8
BODY
  5
163
 10
-1.150365
 20
4.0
 30
0.378926
 70
    64
  0
VERTEX
  8
BODY
  5
164
 10
-1.150365
 20
5.0
 30
0.378926
 70
    64
  0
VERTEX
  8
BODY
  5
165
 10
-1.352336
 20
2.0
 30
0.775315
 70
    64
  0
VERTEX
  8
BODY
  5
166
 10
-1.352336
 20
3.0
 30
0.775315
 70
    64
  0
VERTEX
  8
BODY
  5
167
 10
-1.352336
 20
4.0
 30
0.775315
 70
    64
  0
VERTEX
  8
BODY
  5
168
 10
-1.352336
 20
5.0
 30
0.775315
 70
    64
  0
VERTEX
  8
BODY
  5
169
 10
-1.42193
 20
2.0
 30
1.214716
 70
    64
  0
VERTEX
  8
BODY
  5
16A
 10
-1.42193
 20
3.0
 30
1.214716
 70
    64
  0
VERTEX
  8
BODY
  5
16B
 10
-1.42193
 20
4.0
 30
1.214716
 70
    64
  0
VERTEX
  8
BODY
  5
16C
 10
-1.42193
 20
5.0
 30
1.214716
 70
    64
  0
VERTEX
  8
BODY
  5
16D
 10
-1.352336
 20
2.0
 30
1.654116
 70
    64
  0
VERTEX
  8
BODY
  5
16E
 10
-1.352336
 20
3.0
 30
1.654116
 70
    64
  0
VERTEX
  8
BODY
  5
16F
 10
-1.352336
 20
4.0
 30
1.654116
 70
    64
  0
VERTEX
  8
BODY
  5
170
 10
-1.352336
 20
5.0
 30
1.654116
 70
    64
  0
VERTEX
  8
BODY
  5
171
 10
-1.150365
 20
2.0
 30
2.050505
 70
    64
  0
VERTEX
  8
BODY
  5
172
 10
-1.150365
 20
3.0
 30
2.050505
 70
    64
  0
VERTEX
  8
BODY
  5
173
 10
-1.150365
 20
4.0
 30
2.050505
 70
    64
  0
VERTEX
  8
BODY
  5
174
 10
-1.150365
 20
5.0
 30
2.050505
 70
    64
  0
VERTEX
  8
BODY
  5
175
 10
-0.835789
 20
2.0
 30
2.365081
 70
    64
  0
VERTEX
  8
BODY
  5
176
 10
-0.835789
 20
3.0
 30
2.365081
 70
    64
  0
VERTEX
  8
BODY
  5
177
 10
-0.835789
 20
4.0
 30
2.365081
 70
    64
  0
VERTEX
  8
BODY
  5
178
 10
-0.835789
 20
5.0
 30
2.365081
 70
    64
  0
VERTEX
  8
BODY
  5
179
 10
-0.4394
 20
2.0
 30
2.567052
 70
    64
  0
VERTEX
  8
BODY
  5
17A
 10
-0.4394
 20
3.0
 30
2.567052
 70
    64
  0
VERTEX
  8
BODY
  5
17B
 10
-0.4394
 20
4.0
 30
2.567052
 70
    64
  0
VERTEX
  8
BODY
  5
17C
 10
-0.4394
 20
5.0
 30
2.567052
 70
    64
  0
VERTEX
  8
BODY
  5
17D
 10
0.0
 20
2.0
 30
2.636646
 70
    64
  0
VERTEX
  8
BODY
  5
17E
 10
0.0
 20
3.0
 30
2.636646
 70
    64
  0
VERTEX
  8
BODY
  5
17F
 10
0.0
 20
4.0
 30
2.636646
 70
    64
  0
VERTEX
  8
BODY
  5
180
 10
0.0
 20
5.0
 30
2.636646
 70
    64
  0
SEQEND
  8
BODY
  5
181
  0
POLYLINE
  8
BODY
  5
182
 66
     1
 10
0.0
 20
0.0
 30
0.0
 70
    16
 71
    11
 72
     4
  0
VERTEX
  8
BODY
  5
183
 10
0.0
 20
10.0
 30
-0.207215
 70
    64
  0
VERTEX
  8
BODY
  5
184
 10
0.0
 20
11.0
 30
-0.207215
 70
    64
  0
VERTEX
  8
BODY
  5
185
 10
0.0
 20
12.0
 30
-0.207215
 70
    64
  0
VERTEX
  8
BODY
  5
186
 10
0.0
 20
13.0
 30
-0.207215
 70
    64
  0
VERTEX
  8
BODY
  5
187
 10
-0.4394
 20
10.0
 30
-0.13762
 70
    64
  0
VERTEX
  8
BODY
  5
188
 10
-0.4394
 20
11.0
 30
-0.13762
 70
    64
  0
VERTEX
  8
BODY
  5
189
 10
-0.4394
 20
12.0
 30
-0.13762
 70
    64
  0
VERTEX
  8
BODY
  5
18A
 10
-0.4394
 20
13.0
 30
-0.13762
 70
    64
  0
VERTEX
  8
BODY
  5
18B
 10
-0.835789
 20
10.0
 30
0.06435
 70
    64
  0
VERTEX
  8
BODY
  5
18C
 10
-0.835789
 20
11.0
 30
0.06435
 70
    64
  0
VERTEX
  8
BODY
  5
18D
 10
-0.835789
 20
12.0
 30
0.06435
 70
    64
  0
VERTEX
  8
BODY
  5
18E
 10
-0.835789
 20
13.0
 30
0.06435
 70
    64
  0
VERTEX
  8
BODY
  5
18F
 10
-1.150365
 20
10.0
 30
0.378926
 70
    64
  0
VERTEX
  8
BODY
  5
190
 10
-1.150365
 20
11.0
 30
0.378926
 70
    64
  0
VERTEX
  8
BODY
  5
191
 10
-1.150365
 20
12.0
 30
0.378926
 70
    64
  0
VERTEX
  8
BODY
  5
192
 10
-1.150365
 20
13.0
 30
0.378926
 70
    64
  0
VERTEX
  8
BODY
  5
193
 10
-1.352336
 20
10.0
 30
0.775315
 70
    64
  0
VERTEX
  8
BODY
  5
194
 10
-1.352336
 20
11.0
 30
0.775315
 70
    64
  0
VERTEX
  8
BODY
  5
195
 10
-1.352336
 20
12.0
 30
0.775315
 70
    64
  0
VERTEX
  8
BODY
  5
196
 10
-1.352336
 20
13.0
 30
0.775315
 70
    64
  0
VERTEX
  8
BODY
  5
197
 10
-1.42193
 20
10.0
 30
1.214716
 70
    64
  0
VERTEX
  8
BODY
  5
198
 10
-1.42193
 20
11.0
 30
1.214716
 70
    64
  0
VERTEX
  8
BODY
  5
199
 10
-1.42193
 20
12.0
 30
1.214716
 70
    64
  0
VERTEX
  8
BODY
  5
19A
 10
-1.42193
 20
13.0
 30
1.214716
 70
    64
  0
VERTEX
  8
BODY
  5
19B
 10
-1.352336
 20
10.0
 30
1.654116
 70
    64
  0
VERTEX
  8
BODY
  5
19C
 10
-1.352336
 20
11.0
 30
1.654116
 70
    64
  0
VERTEX
  8
BODY
  5
19D
 10
-1.352336
 20
12.0
 30
1.654116
 70
    64
  0
VERTEX
  8
BODY
  5
19E
 10
-1.352336
 20
13.0
 30
1.654116
 70
    64
  0
VERTEX
  8
BODY
  5
19F
 10
-1.150365
 20
10.0
 30
2.050505
 70
    64
  0
VERTEX
  8
BODY
  5
1A0
 10
-1.150365
 20
11.0
 30
2.050505
 70
    64
  0
VERTEX
  8
BODY
  5
1A1
 10
-1.150365
 20
12.0
 30
2.050505
 70
    64
  0
VERTEX
  8
BODY
  5
1A2
 10
-1.150365
 20
13.0
 30
2.050505
 70
    64
  0
VERTEX
  8
BODY
  5
1A3
 10
-0.835789
 20
10.0
 30
2.365081
 70
    64
  0
VERTEX
  8
BODY
  5
1A4
 10
-0.835789
 20
11.0
 30
2.365081
 70
    64
  0
VERTEX
  8
BODY
  5
1A5
 10
-0.835789
 20
12.0
 30
2.365081
 70
    64
  0
VERTEX
  8
BODY
  5
1A6
 10
-0.835789
 20
13.0
 30
2.365081
 70
    64
  0
VERTEX
  8
BODY
  5
1A7
 10
-0.4394
 20
10.0
 30
2.567052
 70
    64
  0
VERTEX
  8
BODY
  5
1A8
 10
-0.4394
 20
11.0
 30
2.567052
 70
    64
  0
VERTEX
  8
BODY
  5
1A9
 10
-0.4394
 20
12.0
 30
2.567052
 70
    64
  0
VERTEX
  8
BODY
  5
1AA
 10
-0.4394
 20
13.0
 30
2.567052
 70
    64
  0
VERTEX
  8
BODY
  5
1AB
 10
0.0
 20
10.0
 30
2.636646
 70
    64
  0
VERTEX
  8
BODY
  5
1AC
 10
0.0
 20
11.0
 30
2.636646
 70
    64
  0
VERTEX
  8
BODY
  5
1AD
 10
0.0
 20
12.0
 30
2.636646
 70
    64
  0
VERTEX
  8
BODY
  5
1AE
 10
0.0
 20
13.0
 30
2.636646
 70
    64
  0
SEQEND
  8
BODY
  5
1AF
  0
POLYLINE
  8
TAIL
  5
1B0
 66
     1
 10
0.0
 20
0.0
 30
0.0
 70
    16
 71
     5
 72
    11
  0
VERTEX
  8
TAIL
  5
1B1
 10
-0.003983
 20
18.701679
 30
2.632923
 70
    64
  0
VERTEX
  8
TAIL
  5
1B2
 10
-0.022677
 20
18.519597
 30
2.632923
 70
    64
  0
VERTEX
  8
TAIL
  5
1B3
 10
-0.041371
 20
18.337515
 30
2.632923
 70
    64
  0
VERTEX
  8
TAIL
  5
1B4
 10
-0.058357
 20
18.155281
 30
2.632923
 70
    64
  0
VERTEX
  8
TAIL
  5
1B5
 10
-0.072123
 20
17.972761
 30
2.632923
 70
    64
  0
VERTEX
  8
TAIL
  5
1B6
 10
-0.08472
 20
17.790172
 30
2.632923
 70
    64
  0
VERTEX
  8
TAIL
  5
1B7
 10
-0.09216
 20
17.607284
 30
2.632923
 70
    64
  0
VERTEX
  8
TAIL
  5
1B8
 10
-0.095591
 20
17.424327
 30
2.632923
 70
    64
  0
VERTEX
  8
TAIL
  5
1B9
 10
-0.092537
 20
17.241369
 30
2.632923
 70
    64
  0
VERTEX
  8
TAIL
  5
1BA
 10
-0.074967
 20
17.059358
 30
2.632923
 70
    64
  0
VERTEX
  8
TAIL
  5
1BB
 10
-0.003983
 20
16.89919
 30
2.632923
 70
    64
  0
VERTEX
  8
TAIL
  5
1BC
 10
-0.007505
 20
18.992888
 30
3.070297
 70
    64
  0
VERTEX
  8
TAIL
  5
1BD
 10
-0.024109
 20
18.831167
 30
3.070297
 70
    64
  0
VERTEX
  8
TAIL
  5
1BE
 10
-0.040713
 20
18.669447
 30
3.070297
 70
    64
  0
VERTEX
  8
TAIL
  5
1BF
 10
-0.055799
 20
18.507591
 30
3.070297
 70
    64
  0
VERTEX
  8
TAIL
  5
1C0
 10
-0.068026
 20
18.345481
 30
3.070297
 70
    64
  0
VERTEX
  8
TAIL
  5
1C1
 10
-0.079214
 20
18.18331
 30
3.070297
 70
    64
  0
VERTEX
  8
TAIL
  5
1C2
 10
-0.085823
 20
18.020874
 30
3.070297
 70
    64
  0
VERTEX
  8
TAIL
  5
1C3
 10
-0.08887
 20
17.858376
 30
3.070297
 70
    64
  0
VERTEX
  8
TAIL
  5
1C4
 10
-0.086157
 20
17.695877
 30
3.070297
 70
    64
  0
VERTEX
  8
TAIL
  5
1C5
 10
-0.070552
 20
17.53422
 30
3.070297
 70
    64
  0
VERTEX
  8
TAIL
  5
1C6
 10
-0.007505
 20
17.391962
 30
3.070297
 70
    64
  0
VERTEX
  8
TAIL
  5
1C7
 10
-0.014023
 20
19.367085
 30
3.691564
 70
    64
  0
VERTEX
  8
TAIL
  5
1C8
 10
-0.027485
 20
19.235963
 30
3.691564
 70
    64
  0
VERTEX
  8
TAIL
  5
1C9
 10
-0.040947
 20
19.104841
 30
3.691564
 70
    64
  0
VERTEX
  8
TAIL
  5
1CA
 10
-0.053179
 20
18.973609
 30
3.691564
 70
    64
  0
VERTEX
  8
TAIL
  5
1CB
 10
-0.063092
 20
18.842172
 30
3.691564
 70
    64
  0
VERTEX
  8
TAIL
  5
1CC
 10
-0.072164
 20
18.710685
 30
3.691564
 70
    64
  0
VERTEX
  8
TAIL
  5
1CD
 10
-0.077522
 20
18.578983
 30
3.691564
 70
    64
  0
VERTEX
  8
TAIL
  5
1CE
 10
-0.079993
 20
18.44723
 30
3.691564
 70
    64
  0
VERTEX
  8
TAIL
  5
1CF
 10
-0.077793
 20
18.315478
 30
3.691564
 70
    64
  0
VERTEX
  8
TAIL
  5
1D0
 10
-0.065141
 20
18.184407
 30
3.691564
 70
    64
  0
VERTEX
  8
TAIL
  5
1D1
 10
-0.014023
 20
18.069066
 30
3.691564
 70
    64
  0
VERTEX
  8
TAIL
  5
1D2
 10
-0.004666
 20
19.713698
 30
4.183113
 70
    64
  0
VERTEX
  8
TAIL
  5
1D3
 10
-0.015505
 20
19.608126
 30
4.183113
 70
    64
  0
VERTEX
  8
TAIL
  5
1D4
 10
-0.026344
 20
19.502554
 30
4.183113
 70
    64
  0
VERTEX
  8
TAIL
  5
1D5
 10
-0.036192
 20
19.396894
 30
4.183113
 70
    64
  0
VERTEX
  8
TAIL
  5
1D6
 10
-0.044174
 20
19.291068
 30
4.183113
 70
    64
  0
VERTEX
  8
TAIL
  5
1D7
 10
-0.051478
 20
19.185202
 30
4.183113
 70
    64
  0
VERTEX
  8
TAIL
  5
1D8
 10
-0.055791
 20
19.079163
 30
4.183113
 70
    64
  0
VERTEX
  8
TAIL
  5
1D9
 10
-0.057781
 20
18.973084
 30
4.183113
 70
    64
  0
VERTEX
  8
TAIL
  5
1DA
 10
-0.05601
 20
18.867004
 30
4.183113
 70
    64
  0
VERTEX
  8
TAIL
  5
1DB
 10
-0.045823
 20
18.761473
 30
4.183113
 70
    64
  0
VERTEX
  8
TAIL
  5
1DC
 10
-0.004666
 20
18.668607
 30
4.183113
 70
    64
  0
VERTEX
  8
TAIL
  5
1DD
 10
-0.015589
 20
20.074316
 30
4.702168
 70
    64
  0
VERTEX
  8
TAIL
  5
1DE
 10
-0.007182
 20
19.992432
 30
4.702168
 70
    64
  0
VERTEX
  8
TAIL
  5
1DF
 10
-0.032403
 20
19.910547
 30
4.702168
 70
    64
  0
VERTEX
  8
TAIL
  5
1E0
 10
-0.040042
 20
19.828594
 30
4.702168
 70
    64
  0
VERTEX
  8
TAIL
  5
1E1
 10
-0.046232
 20
19.746512
 30
4.702168
 70
    64
  0
VERTEX
  8
TAIL
  5
1E2
 10
-0.051897
 20
19.6644
 30
4.702168
 70
    64
  0
VERTEX
  8
TAIL
  5
1E3
 10
-0.055243
 20
19.582153
 30
4.702168
 70
    64
  0
VERTEX
  8
TAIL
  5
1E4
 10
-0.056786
 20
19.499874
 30
4.702168
 70
    64
  0
VERTEX
  8
TAIL
  5
1E5
 10
-0.055413
 20
19.417596
 30
4.702168
 70
    64
  0
VERTEX
  8
TAIL
  5
1E6
 10
-0.047511
 20
19.335743
 30
4.702168
 70
    64
  0
VERTEX
  8
TAIL
  5
1E7
 10
-0.015589
 20
19.263714
 30
4.702168
 70
    64
  0
SEQEND
  8
TAIL
  5
1E8
  0
POLYLINE
  8
WINGS
  5
1E9
 66
     1
 10
0.0
 20
0.0
 30
0.0
 70
    16
 71
     5
 72
    11
  0
VERTEX
  8
WINGS
  5
1EA
 10
-3.438965
 20
18.346199
 30
2.769416
 70
    64
  0
VERTEX
  8
WINGS
  5
1EB
 10
-3.442918
 20
18.49624
 30
2.758428
 70
    64
  0
VERTEX
  8
WINGS
  5
1EC
 10
-3.434022
 20
18.59278
 30
2.758428
 70
    64
  0
VERTEX
  8
WINGS
  5
1ED
 10
-3.41684
 20
18.688234
 30
2.758428
 70
    64
  0
VERTEX
  8
WINGS
  5
1EE
 10
-3.395579
 20
18.782874
 30
2.758428
 70
    64
  0
VERTEX
  8
WINGS
  5
1EF
 10
-3.371909
 20
18.876942
 30
2.758428
 70
    64
  0
VERTEX
  8
WINGS
  5
1F0
 10
-3.34597
 20
18.970411
 30
2.758428
 70
    64
  0
VERTEX
  8
WINGS
  5
1F1
 10
-3.318366
 20
19.063402
 30
2.758428
 70
    64
  0
VERTEX
  8
WINGS
  5
1F2
 10
-3.289297
 20
19.155947
 30
2.758428
 70
    64
  0
VERTEX
  8
WINGS
  5
1F3
 10
-3.25926
 20
19.248183
 30
2.758428
 70
    64
  0
VERTEX
  8
WINGS
  5
1F4
 10
-3.228475
 20
19.340171
 30
2.758428
 70
    64
  0
VERTEX
  8
WINGS
  5
1F5
 10
-3.438965
 20
18.346199
 30
2.769416
 70
    64
  0
VERTEX
  8
WINGS
  5
1F6
 10
-3.418917
 20
18.438266
 30
2.810578
 70
    64
  0
VERTEX
  8
WINGS
  5
1F7
 10
-3.397117
 20
18.538378
 30
2.831595
 70
    64
  0
VERTEX
  8
WINGS
  5
1F8
 10
-3.375018
 20
18.639864
 30
2.843961
 70
    64
  0
VERTEX
  8
WINGS
  5
1F9
 10
-3.352782
 20
18.741977
 30
2.848347
 70
    64
  0
VERTEX
  8
WINGS
  5
1FA
 10
-3.33055
 20
18.844074
 30
2.843458
 70
    64
  0
VERTEX
  8
WINGS
  5
1FB
 10
-3.308441
 20
18.94561
 30
2.831354
 70
    64
  0
VERTEX
  8
WINGS
  5
1FC
 10
-3.28643
 20
19.046688
 30
2.815716
 70
    64
  0
VERTEX
  8
WINGS
  5
1FD
 10
-3.264497
 20
19.147414
 30
2.797832
 70
    64
  0
VERTEX
  8
WINGS
  5
1FE
 10
-3.242616
 20
19.247897
 30
2.77856
 70
    64
  0
VERTEX
  8
WINGS
  5
1FF
 10
-3.22077
 20
19.348223
 30
2.758437
 70
    64
  0
VERTEX
  8
WINGS
  5
200
 10
-2.512781
 20
17.900396
 30
2.696691
 70
    64
  0
VERTEX
  8
WINGS
  5
201
 10
-2.488177
 20
18.013387
 30
2.747208
 70
    64
  0
VERTEX
  8
WINGS
  5
202
 10
-2.461422
 20
18.136253
 30
2.773002
 70
    64
  0
VERTEX
  8
WINGS
  5
203
 10
-2.434301
 20
18.260803
 30
2.788179
 70
    64
  0
VERTEX
  8
WINGS
  5
204
 10
-2.407012
 20
18.386124
 30
2.793561
 70
    64
  0
VERTEX
  8
WINGS
  5
205
 10
-2.379727
 20
18.511425
 30
2.787561
 70
    64
  0
VERTEX
  8
WINGS
  5
206
 10
-2.352592
 20
18.636037
 30
2.772706
 70
    64
  0
VERTEX
  8
WINGS
  5
207
 10
-2.32558
 20
18.760088
 30
2.753514
 70
    64
  0
VERTEX
  8
WINGS
  5
208
 10
-2.298661
 20
18.883706
 30
2.731565
 70
    64
  0
VERTEX
  8
WINGS
  5
209
 10
-2.271808
 20
19.007025
 30
2.707914
 70
    64
  0
VERTEX
  8
WINGS
  5
20A
 10
-2.244997
 20
19.130153
 30
2.683218
 70
    64
  0
VERTEX
  8
WINGS
  5
20B
 10
-1.586597
 20
17.454594
 30
2.623966
 70
    64
  0
VERTEX
  8
WINGS
  5
20C
 10
-1.557437
 20
17.588509
 30
2.683838
 70
    64
  0
VERTEX
  8
WINGS
  5
20D
 10
-1.525728
 20
17.734128
 30
2.714409
 70
    64
  0
VERTEX
  8
WINGS
  5
20E
 10
-1.493584
 20
17.881743
 30
2.732396
 70
    64
  0
VERTEX
  8
WINGS
  5
20F
 10
-1.461241
 20
18.030271
 30
2.738775
 70
    64
  0
VERTEX
  8
WINGS
  5
210
 10
-1.428904
 20
18.178775
 30
2.731664
 70
    64
  0
VERTEX
  8
WINGS
  5
211
 10
-1.396744
 20
18.326464
 30
2.714058
 70
    64
  0
VERTEX
  8
WINGS
  5
212
 10
-1.364729
 20
18.473488
 30
2.691312
 70
    64
  0
VERTEX
  8
WINGS
  5
213
 10
-1.332826
 20
18.619997
 30
2.665298
 70
    64
  0
VERTEX
  8
WINGS
  5
214
 10
-1.301
 20
18.766154
 30
2.637267
 70
    64
  0
VERTEX
  8
WINGS
  5
215
 10
-1.269223
 20
18.912083
 30
2.607998
 70
    64
  0
VERTEX
  8
WINGS
  5
216
 10
-0.663323
 20
16.995475
 30
2.524698
 70
    64
  0
VERTEX
  8
WINGS
  5
217
 10
-0.629346
 20
17.15151
 30
2.594461
 70
    64
  0
VERTEX
  8
WINGS
  5
218
 10
-0.592399
 20
17.321182
 30
2.63008
 70
    64
  0
VERTEX
  8
WINGS
  5
219
 10
-0.554946
 20
17.49318
 30
2.651039
 70
    64
  0
VERTEX
  8
WINGS
  5
21A
 10
-0.517261
 20
17.666242
 30
2.658471
 70
    64
  0
VERTEX
  8
WINGS
  5
21B
 10
-0.479582
 20
17.839276
 30
2.650186
 70
    64
  0
VERTEX
  8
WINGS
  5
21C
 10
-0.44211
 20
18.01136
 30
2.629671
 70
    64
  0
VERTEX
  8
WINGS
  5
21D
 10
-0.404807
 20
18.182668
 30
2.603169
 70
    64
  0
VERTEX
  8
WINGS
  5
21E
 10
-0.367634
 20
18.353378
 30
2.572858
 70
    64
  0
VERTEX
  8
WINGS
  5
21F
 10
-0.330551
 20
18.523677
 30
2.540197
 70
    64
  0
VERTEX
  8
WINGS
  5
220
 10
-0.293526
 20
18.69371
 30
2.506093
 70
    64
  0
SEQEND
  8
WINGS
  5
221
  0
POLYLINE
  8
WINGS
  5
222
 66
     1
 10
0.0
 20
0.0
 30
0.0
 70
    16
 71
     7
 72
    11
  0
VERTEX
  8
WINGS
  5
223
 10
-12.580612
 20
8.950456
 30
0.952561
 70
    64
  0
VERTEX
  8
WINGS
  5
224
 10
-12.616839
 20
9.09622
 30
0.941574
 70
    64
  0
VERTEX
  8
WINGS
  5
225
 10
-12.628687
 20
9.192443
 30
0.941574
 70
    64
  0
VERTEX
  8
WINGS
  5
226
 10
-12.632208
 20
9.289367
 30
0.941574
 70
    64
  0
VERTEX
  8
WINGS
  5
227
 10
-12.631571
 20
9.386364
 30
0.941574
 70
    64
  0
VERTEX
  8
WINGS
  5
228
 10
-12.628458
 20
9.483314
 30
0.941574
 70
    64
  0
VERTEX
  8
WINGS
  5
229
 10
-12.623
 20
9.580162
 30
0.941574
 70
    64
  0
VERTEX
  8
WINGS
  5
22A
 10
-12.615813
 20
9.676897
 30
0.941574
 70
    64
  0
VERTEX
  8
WINGS
  5
22B
 10
-12.6071
 20
9.773508
 30
0.941574
 70
    64
  0
VERTEX
  8
WINGS
  5
22C
 10
-12.597376
 20
9.870022
 30
0.941574
 70
    64
  0
VERTEX
  8
WINGS
  5
22D
 10
-12.586868
 20
9.966455
 30
0.941574
 70
    64
  0
VERTEX
  8
WINGS
  5
22E
 10
-12.580612
 20
8.950456
 30
0.952561
 70
    64
  0
VERTEX
  8
WINGS
  5
22F
 10
-12.580612
 20
9.04468
 30
0.993724
 70
    64
  0
VERTEX
  8
WINGS
  5
230
 10
-12.580612
 20
9.147139
 30
1.014741
 70
    64
  0
VERTEX
  8
WINGS
  5
231
 10
-12.580612
 20
9.251003
 30
1.027107
 70
    64
  0
VERTEX
  8
WINGS
  5
232
 10
-12.580612
 20
9.355509
 30
1.031493
 70
    64
  0
VERTEX
  8
WINGS
  5
233
 10
-12.580612
 20
9.459998
 30
1.026604
 70
    64
  0
VERTEX
  8
WINGS
  5
234
 10
-12.580612
 20
9.563913
 30
1.014499
 70
    64
  0
VERTEX
  8
WINGS
  5
235
 10
-12.580612
 20
9.667361
 30
0.998862
 70
    64
  0
VERTEX
  8
WINGS
  5
236
 10
-12.580612
 20
9.770446
 30
0.980977
 70
    64
  0
VERTEX
  8
WINGS
  5
237
 10
-12.580612
 20
9.873284
 30
0.961706
 70
    64
  0
VERTEX
  8
WINGS
  5
238
 10
-12.580612
 20
9.975961
 30
0.941583
 70
    64
  0
VERTEX
  8
WINGS
  5
239
 10
-11.580783
 20
8.711923
 30
0.879836
 70
    64
  0
VERTEX
  8
WINGS
  5
23A
 10
-11.580783
 20
8.827562
 30
0.930354
 70
    64
  0
VERTEX
  8
WINGS
  5
23B
 10
-11.580783
 20
8.953307
 30
0.956147
 70
    64
  0
VERTEX
  8
WINGS
  5
23C
 10
-11.580783
 20
9.080776
 30
0.971324
 70
    64
  0
VERTEX
  8
WINGS
  5
23D
 10
-11.580783
 20
9.209034
 30
0.976707
 70
    64
  0
VERTEX
  8
WINGS
  5
23E
 10
-11.580783
 20
9.33727
 30
0.970707
 70
    64
  0
VERTEX
  8
WINGS
  5
23F
 10
-11.580783
 20
9.464803
 30
0.955851
 70
    64
  0
VERTEX
  8
WINGS
  5
240
 10
-11.580783
 20
9.591761
 30
0.93666
 70
    64
  0
VERTEX
  8
WINGS
  5
241
 10
-11.580783
 20
9.718275
 30
0.914711
 70
    64
  0
VERTEX
  8
WINGS
  5
242
 10
-11.580783
 20
9.844485
 30
0.891059
 70
    64
  0
VERTEX
  8
WINGS
  5
243
 10
-11.580783
 20
9.970497
 30
0.866363
 70
    64
  0
VERTEX
  8
WINGS
  5
244
 10
-10.580954
 20
8.473391
 30
0.807112
 70
    64
  0
VERTEX
  8
WINGS
  5
245
 10
-10.580954
 20
8.610444
 30
0.866984
 70
    64
  0
VERTEX
  8
WINGS
  5
246
 10
-10.580954
 20
8.759475
 30
0.897554
 70
    64
  0
VERTEX
  8
WINGS
  5
247
 10
-10.580954
 20
8.910549
 30
0.915542
 70
    64
  0
VERTEX
  8
WINGS
  5
248
 10
-10.580954
 20
9.062558
 30
0.921921
 70
    64
  0
VERTEX
  8
WINGS
  5
249
 10
-10.580954
 20
9.214542
 30
0.914809
 70
    64
  0
VERTEX
  8
WINGS
  5
24A
 10
-10.580954
 20
9.365692
 30
0.897203
 70
    64
  0
VERTEX
  8
WINGS
  5
24B
 10
-10.580954
 20
9.516161
 30
0.874458
 70
    64
  0
VERTEX
  8
WINGS
  5
24C
 10
-10.580954
 20
9.666104
 30
0.848444
 70
    64
  0
VERTEX
  8
WINGS
  5
24D
 10
-10.580954
 20
9.815686
 30
0.820413
 70
    64
  0
VERTEX
  8
WINGS
  5
24E
 10
-10.580954
 20
9.965034
 30
0.791143
 70
    64
  0
VERTEX
  8
WINGS
  5
24F
 10
-9.581134
 20
8.221227
 30
0.707844
 70
    64
  0
VERTEX
  8
WINGS
  5
250
 10
-9.581134
 20
8.380919
 30
0.777606
 70
    64
  0
VERTEX
  8
WINGS
  5
251
 10
-9.581134
 20
8.554567
 30
0.813226
 70
    64
  0
VERTEX
  8
WINGS
  5
252
 10
-9.581134
 20
8.730595
 30
0.834185
 70
    64
  0
VERTEX
  8
WINGS
  5
253
 10
-9.581134
 20
8.907713
 30
0.841617
 70
    64
  0
VERTEX
  8
WINGS
  5
254
 10
-9.581134
 20
9.084802
 30
0.833331
 70
    64
  0
VERTEX
  8
WINGS
  5
255
 10
-9.581134
 20
9.260918
 30
0.812817
 70
    64
  0
VERTEX
  8
WINGS
  5
256
 10
-9.581134
 20
9.436241
 30
0.786315
 70
    64
  0
VERTEX
  8
WINGS
  5
257
 10
-9.581134
 20
9.610951
 30
0.756004
 70
    64
  0
VERTEX
  8
WINGS
  5
258
 10
-9.581134
 20
9.785241
 30
0.723342
 70
    64
  0
VERTEX
  8
WINGS
  5
259
 10
-9.581134
 20
9.959258
 30
0.689238
 70
    64
  0
VERTEX
  8
WINGS
  5
25A
 10
-8.581325
 20
7.955434
 30
0.656657
 70
    64
  0
VERTEX
  8
WINGS
  5
25B
 10
-8.581325
 20
8.138987
 30
0.736844
 70
    64
  0
VERTEX
  8
WINGS
  5
25C
 10
-8.581325
 20
8.338582
 30
0.777786
 70
    64
  0
VERTEX
  8
WINGS
  5
25D
 10
-8.581325
 20
8.540914
 30
0.801876
 70
    64
  0
VERTEX
  8
WINGS
  5
25E
 10
-8.581325
 20
8.744498
 30
0.810419
 70
    64
  0
VERTEX
  8
WINGS
  5
25F
 10
-8.581325
 20
8.948048
 30
0.800895
 70
    64
  0
VERTEX
  8
WINGS
  5
260
 10
-8.581325
 20
9.150481
 30
0.777316
 70
    64
  0
VERTEX
  8
WINGS
  5
261
 10
-8.581325
 20
9.352001
 30
0.746853
 70
    64
  0
VERTEX
  8
WINGS
  5
262
 10
-8.581325
 20
9.552818
 30
0.712013
 70
    64
  0
VERTEX
  8
WINGS
  5
263
 10
-8.581325
 20
9.753151
 30
0.674471
 70
    64
  0
VERTEX
  8
WINGS
  5
264
 10
-8.581325
 20
9.95317
 30
0.635271
 70
    64
  0
VERTEX
  8
WINGS
  5
265
 10
-7.581507
 20
7.700999
 30
0.596496
 70
    64
  0
VERTEX
  8
WINGS
  5
266
 10
-7.581507
 20
7.907395
 30
0.686661
 70
    64
  0
VERTEX
  8
WINGS
  5
267
 10
-7.581507
 20
8.131828
 30
0.732698
 70
    64
  0
VERTEX
  8
WINGS
  5
268
 10
-7.581507
 20
8.359339
 30
0.759787
 70
    64
  0
VERTEX
  8
WINGS
  5
269
 10
-7.581507
 20
8.588257
 30
0.769393
 70
    64
  0
VERTEX
  8
WINGS
  5
26A
 10
-7.581507
 20
8.817138
 30
0.758684
 70
    64
  0
VERTEX
  8
WINGS
  5
26B
 10
-7.581507
 20
9.044763
 30
0.73217
 70
    64
  0
VERTEX
  8
WINGS
  5
26C
 10
-7.581507
 20
9.271361
 30
0.697916
 70
    64
  0
VERTEX
  8
WINGS
  5
26D
 10
-7.581507
 20
9.497168
 30
0.658741
 70
    64
  0
VERTEX
  8
WINGS
  5
26E
 10
-7.581507
 20
9.722432
 30
0.616527
 70
    64
  0
VERTEX
  8
WINGS
  5
26F
 10
-7.581507
 20
9.947343
 30
0.572449
 70
    64
  0
SEQEND
  8
WINGS
  5
270
  0
POLYLINE
  8
WINGS
  5
271
 66
     1
 10
0.0
 20
0.0
 30
0.0
 70
    16
 71
     7
 72
    11
  0
VERTEX
  8
WINGS
  5
272
 10
-7.581507
 20
7.700999
 30
0.596496
 70
    64
  0
VERTEX
  8
WINGS
  5
273
 10
-7.581507
 20
7.907395
 30
0.686661
 70
    64
  0
VERTEX
  8
WINGS
  5
274
 10
-7.581507
 20
8.131828
 30
0.732698
 70
    64
  0
VERTEX
  8
WINGS
  5
275
 10
-7.581507
 20
8.359339
 30
0.759787
 70
    64
  0
VERTEX
  8
WINGS
  5
276
 10
-7.581507
 20
8.588257
 30
0.769393
 70
    64
  0
VERTEX
  8
WINGS
  5
277
 10
-7.581507
 20
8.817138
 30
0.758684
 70
    64
  0
VERTEX
  8
WINGS
  5
278
 10
-7.581507
 20
9.044763
 30
0.73217
 70
    64
  0
VERTEX
  8
WINGS
  5
279
 10
-7.581507
 20
9.271361
 30
0.697916
 70
    64
  0
VERTEX
  8
WINGS
  5
27A
 10
-7.581507
 20
9.497168
 30
0.658741
 70
    64
  0
VERTEX
  8
WINGS
  5
27B
 10
-7.581507
 20
9.722432
 30
0.616527
 70
    64
  0
VERTEX
  8
WINGS
  5
27C
 10
-7.581507
 20
9.947343
 30
0.572449
 70
    64
  0
VERTEX
  8
WINGS
  5
27D
 10
-6.581696
 20
7.437477
 30
0.506202
 70
    64
  0
VERTEX
  8
WINGS
  5
27E
 10
-6.581696
 20
7.667531
 30
0.606703
 70
    64
  0
VERTEX
  8
WINGS
  5
27F
 10
-6.581696
 20
7.91769
 30
0.658017
 70
    64
  0
VERTEX
  8
WINGS
  5
280
 10
-6.581696
 20
8.171279
 30
0.68821
 70
    64
  0
VERTEX
  8
WINGS
  5
281
 10
-6.581696
 20
8.426437
 30
0.698918
 70
    64
  0
VERTEX
  8
WINGS
  5
282
 10
-6.581696
 20
8.681553
 30
0.686981
 70
    64
  0
VERTEX
  8
WINGS
  5
283
 10
-6.581696
 20
8.935269
 30
0.657428
 70
    64
  0
VERTEX
  8
WINGS
  5
284
 10
-6.581696
 20
9.187841
 30
0.619248
 70
    64
  0
VERTEX
  8
WINGS
  5
285
 10
-6.581696
 20
9.439532
 30
0.575582
 70
    64
  0
VERTEX
  8
WINGS
  5
286
 10
-6.581696
 20
9.690615
 30
0.52853
 70
    64
  0
VERTEX
  8
WINGS
  5
287
 10
-6.581696
 20
9.941307
 30
0.479399
 70
    64
  0
VERTEX
  8
WINGS
  5
288
 10
-5.581891
 20
7.164868
 30
0.4604
 70
    64
  0
VERTEX
  8
WINGS
  5
289
 10
-5.581891
 20
7.419396
 30
0.571592
 70
    64
  0
VERTEX
  8
WINGS
  5
28A
 10
-5.581891
 20
7.696167
 30
0.628365
 70
    64
  0
VERTEX
  8
WINGS
  5
28B
 10
-5.581891
 20
7.976735
 30
0.66177
 70
    64
  0
VERTEX
  8
WINGS
  5
28C
 10
-5.581891
 20
8.259037
 30
0.673617
 70
    64
  0
VERTEX
  8
WINGS
  5
28D
 10
-5.581891
 20
8.541293
 30
0.66041
 70
    64
  0
VERTEX
  8
WINGS
  5
28E
 10
-5.581891
 20
8.822
 30
0.627713
 70
    64
  0
VERTEX
  8
WINGS
  5
28F
 10
-5.581891
 20
9.101442
 30
0.585472
 70
    64
  0
VERTEX
  8
WINGS
  5
290
 10
-5.581891
 20
9.379907
 30
0.53716
 70
    64
  0
VERTEX
  8
WINGS
  5
291
 10
-5.581891
 20
9.657702
 30
0.485103
 70
    64
  0
VERTEX
  8
WINGS
  5
292
 10
-5.581891
 20
9.935063
 30
0.430745
 70
    64
  0
VERTEX
  8
WINGS
  5
293
 10
-4.58207
 20
6.914977
 30
0.396649
 70
    64
  0
VERTEX
  8
WINGS
  5
294
 10
-4.58207
 20
7.191939
 30
0.517642
 70
    64
  0
VERTEX
  8
WINGS
  5
295
 10
-4.58207
 20
7.493105
 30
0.579419
 70
    64
  0
VERTEX
  8
WINGS
  5
296
 10
-4.58207
 20
7.798402
 30
0.615769
 70
    64
  0
VERTEX
  8
WINGS
  5
297
 10
-4.58207
 20
8.105586
 30
0.628659
 70
    64
  0
VERTEX
  8
WINGS
  5
298
 10
-4.58207
 20
8.412721
 30
0.614289
 70
    64
  0
VERTEX
  8
WINGS
  5
299
 10
-4.58207
 20
8.71817
 30
0.57871
 70
    64
  0
VERTEX
  8
WINGS
  5
29A
 10
-4.58207
 20
9.022242
 30
0.532745
 70
    64
  0
VERTEX
  8
WINGS
  5
29B
 10
-4.58207
 20
9.325252
 30
0.480175
 70
    64
  0
VERTEX
  8
WINGS
  5
29C
 10
-4.58207
 20
9.627532
 30
0.423529
 70
    64
  0
VERTEX
  8
WINGS
  5
29D
 10
-4.58207
 20
9.929339
 30
0.36438
 70
    64
  0
VERTEX
  8
WINGS
  5
29E
 10
-3.582414
 20
6.433459
 30
0.366652
 70
    64
  0
VERTEX
  8
WINGS
  5
29F
 10
-3.582414
 20
6.753649
 30
0.50653
 70
    64
  0
VERTEX
  8
WINGS
  5
2A0
 10
-3.582414
 20
7.101823
 30
0.577949
 70
    64
  0
VERTEX
  8
WINGS
  5
2A1
 10
-3.582414
 20
7.454771
 30
0.619972
 70
    64
  0
VERTEX
  8
WINGS
  5
2A2
 10
-3.582414
 20
7.809902
 30
0.634875
 70
    64
  0
VERTEX
  8
WINGS
  5
2A3
 10
-3.582414
 20
8.164975
 30
0.618261
 70
    64
  0
VERTEX
  8
WINGS
  5
2A4
 10
-3.582414
 20
8.518099
 30
0.577129
 70
    64
  0
VERTEX
  8
WINGS
  5
2A5
 10
-3.582414
 20
8.869631
 30
0.52399
 70
    64
  0
VERTEX
  8
WINGS
  5
2A6
 10
-3.582414
 20
9.219935
 30
0.463215
 70
    64
  0
VERTEX
  8
WINGS
  5
2A7
 10
-3.582414
 20
9.569396
 30
0.397728
 70
    64
  0
VERTEX
  8
WINGS
  5
2A8
 10
-3.582414
 20
9.91831
 30
0.329347
 70
    64
  0
VERTEX
  8
WINGS
  5
2A9
 10
-2.582759
 20
5.951759
 30
0.299487
 70
    64
  0
VERTEX
  8
WINGS
  5
2AA
 10
-2.582759
 20
6.315195
 30
0.458257
 70
    64
  0
VERTEX
  8
WINGS
  5
2AB
 10
-2.582759
 20
6.710393
 30
0.539322
 70
    64
  0
VERTEX
  8
WINGS
  5
2AC
 10
-2.582759
 20
7.11101
 30
0.587021
 70
    64
  0
VERTEX
  8
WINGS
  5
2AD
 10
-2.582759
 20
7.514105
 30
0.603936
 70
    64
  0
VERTEX
  8
WINGS
  5
2AE
 10
-2.582759
 20
7.917135
 30
0.585079
 70
    64
  0
VERTEX
  8
WINGS
  5
2AF
 10
-2.582759
 20
8.317952
 30
0.538391
 70
    64
  0
VERTEX
  8
WINGS
  5
2B0
 10
-2.582759
 20
8.716962
 30
0.478075
 70
    64
  0
VERTEX
  8
WINGS
  5
2B1
 10
-2.582759
 20
9.114579
 30
0.409092
 70
    64
  0
VERTEX
  8
WINGS
  5
2B2
 10
-2.582759
 20
9.511238
 30
0.33476
 70
    64
  0
VERTEX
  8
WINGS
  5
2B3
 10
-2.582759
 20
9.907277
 30
0.257143
 70
    64
  0
VERTEX
  8
WINGS
  5
2B4
 10
-1.505483
 20
5.45652
 30
0.243019
 70
    64
  0
VERTEX
  8
WINGS
  5
2B5
 10
-1.505483
 20
5.864416
 30
0.421212
 70
    64
  0
VERTEX
  8
WINGS
  5
2B6
 10
-1.505483
 20
6.307961
 30
0.512194
 70
    64
  0
VERTEX
  8
WINGS
  5
2B7
 10
-1.505483
 20
6.757587
 30
0.565728
 70
    64
  0
VERTEX
  8
WINGS
  5
2B8
 10
-1.505483
 20
7.209995
 30
0.584713
 70
    64
  0
VERTEX
  8
WINGS
  5
2B9
 10
-1.505483
 20
7.662329
 30
0.563549
 70
    64
  0
VERTEX
  8
WINGS
  5
2BA
 10
-1.505483
 20
8.11218
 30
0.51115
 70
    64
  0
VERTEX
  8
WINGS
  5
2BB
 10
-1.505483
 20
8.560003
 30
0.443455
 70
    64
  0
VERTEX
  8
WINGS
  5
2BC
 10
-1.505483
 20
9.006262
 30
0.366032
 70
    64
  0
VERTEX
  8
WINGS
  5
2BD
 10
-1.505483
 20
9.451446
 30
0.282607
 70
    64
  0
VERTEX
  8
WINGS
  5
2BE
 10
-1.505483
 20
9.895934
 30
0.195495
 70
    64
  0
SEQEND
  8
WINGS
  5
2BF
  0
POLYLINE
  8
WINGS
  5
2C0
 66
     1
 10
0.0
 20
0.0
 30
0.0
 70
    16
 71
     5
 72
    11
  0
VERTEX
  8
WINGS
  5
2C1
 10
-3.438965
 20
18.346199
 30
2.769416
 70
    64
  0
VERTEX
  8
WINGS
  5
2C2
 10
-3.442918
 20
18.49624
 30
2.758428
 70
    64
  0
VERTEX
  8
WINGS
  5
2C3
 10
-3.434022
 20
18.59278
 30
2.758428
 70
    64
  0
VERTEX
  8
WINGS
  5
2C4
 10
-3.41684
 20
18.688234
 30
2.758428
 70
    64
  0
VERTEX
  8
WINGS
  5
2C5
 10
-3.395579
 20
18.782874
 30
2.758428
 70
    64
  0
VERTEX
  8
WINGS
  5
2C6
 10
-3.371909
 20
18.876942
 30
2.758428
 70
    64
  0
VERTEX
  8
WINGS
  5
2C7
 10
-3.34597
 20
18.970411
 30
2.758428
 70
    64
  0
VERTEX
  8
WINGS
  5
2C8
 10
-3.318366
 20
19.063402
 30
2.758428
 70
    64
  0
VERTEX
  8
WINGS
  5
2C9
 10
-3.289297
 20
19.155947
 30
2.758428
 70
    64
  0
VERTEX
  8
WINGS
  5
2CA
 10
-3.25926
 20
19.248183
 30
2.758428
 70
    64
  0
VERTEX
  8
WINGS
  5
2CB
 10
-3.22077
 20
19.348223
 30
2.758437
 70
    64
  0
VERTEX
  8
WINGS
  5
2CC
 10
-3.438965
 20
18.346199
 30
2.769416
 70
    64
  0
VERTEX
  8
WINGS
  5
2CD
 10
-3.420946
 20
18.428946
 30
2.724664
 70
    64
  0
VERTEX
  8
WINGS
  5
2CE
 10
-3.398902
 20
18.530181
 30
2.710526
 70
    64
  0
VERTEX
  8
WINGS
  5
2CF
 10
-3.376666
 20
18.632294
 30
2.706066
 70
    64
  0
VERTEX
  8
WINGS
  5
2D0
 10
-3.354412
 20
18.734492
 30
2.708025
 70
    64
  0
VERTEX
  8
WINGS
  5
2D1
 10
-3.332193
 20
18.836532
 30
2.71436
 70
    64
  0
VERTEX
  8
WINGS
  5
2D2
 10
-3.310013
 20
18.938388
 30
2.723343
 70
    64
  0
VERTEX
  8
WINGS
  5
2D3
 10
-3.287846
 20
19.040189
 30
2.73297
 70
    64
  0
VERTEX
  8
WINGS
  5
2D4
 10
-3.265671
 20
19.142022
 30
2.74223
 70
    64
  0
VERTEX
  8
WINGS
  5
2D5
 10
-3.243468
 20
19.243984
 30
2.749805
 70
    64
  0
VERTEX
  8
WINGS
  5
2D6
 10
-3.22123
 20
19.346113
 30
2.754384
 70
    64
  0
VERTEX
  8
WINGS
  5
2D7
 10
-2.512781
 20
17.900396
 30
2.696691
 70
    64
  0
VERTEX
  8
WINGS
  5
2D8
 10
-2.490667
 20
18.001949
 30
2.641768
 70
    64
  0
VERTEX
  8
WINGS
  5
2D9
 10
-2.463613
 20
18.126192
 30
2.624417
 70
    64
  0
VERTEX
  8
WINGS
  5
2DA
 10
-2.436324
 20
18.251513
 30
2.618943
 70
    64
  0
VERTEX
  8
WINGS
  5
2DB
 10
-2.409012
 20
18.376938
 30
2.621347
 70
    64
  0
VERTEX
  8
WINGS
  5
2DC
 10
-2.381743
 20
18.502169
 30
2.629122
 70
    64
  0
VERTEX
  8
WINGS
  5
2DD
 10
-2.354522
 20
18.627174
 30
2.640147
 70
    64
  0
VERTEX
  8
WINGS
  5
2DE
 10
-2.327317
 20
18.752112
 30
2.651962
 70
    64
  0
VERTEX
  8
WINGS
  5
2DF
 10
-2.300102
 20
18.877088
 30
2.663327
 70
    64
  0
VERTEX
  8
WINGS
  5
2E0
 10
-2.272854
 20
19.002224
 30
2.672623
 70
    64
  0
VERTEX
  8
WINGS
  5
2E1
 10
-2.244997
 20
19.130153
 30
2.683218
 70
    64
  0
VERTEX
  8
WINGS
  5
2E2
 10
-1.586597
 20
17.454594
 30
2.623966
 70
    64
  0
VERTEX
  8
WINGS
  5
2E3
 10
-1.560388
 20
17.574953
 30
2.558872
 70
    64
  0
VERTEX
  8
WINGS
  5
2E4
 10
-1.528324
 20
17.722204
 30
2.538309
 70
    64
  0
VERTEX
  8
WINGS
  5
2E5
 10
-1.495981
 20
17.870732
 30
2.531821
 70
    64
  0
VERTEX
  8
WINGS
  5
2E6
 10
-1.463612
 20
18.019384
 30
2.53467
 70
    64
  0
VERTEX
  8
WINGS
  5
2E7
 10
-1.431292
 20
18.167806
 30
2.543885
 70
    64
  0
VERTEX
  8
WINGS
  5
2E8
 10
-1.399031
 20
18.31596
 30
2.556951
 70
    64
  0
VERTEX
  8
WINGS
  5
2E9
 10
-1.366788
 20
18.464034
 30
2.570954
 70
    64
  0
VERTEX
  8
WINGS
  5
2EA
 10
-1.334534
 20
18.612154
 30
2.584423
 70
    64
  0
VERTEX
  8
WINGS
  5
2EB
 10
-1.302239
 20
18.760464
 30
2.595441
 70
    64
  0
VERTEX
  8
WINGS
  5
2EC
 10
-1.269223
 20
18.912083
 30
2.607998
 70
    64
  0
VERTEX
  8
WINGS
  5
2ED
 10
-0.663323
 20
16.995475
 30
2.524698
 70
    64
  0
VERTEX
  8
WINGS
  5
2EE
 10
-0.632785
 20
17.135715
 30
2.448853
 70
    64
  0
VERTEX
  8
WINGS
  5
2EF
 10
-0.595424
 20
17.307288
 30
2.424892
 70
    64
  0
VERTEX
  8
WINGS
  5
2F0
 10
-0.55774
 20
17.48035
 30
2.417333
 70
    64
  0
VERTEX
  8
WINGS
  5
2F1
 10
-0.520023
 20
17.653556
 30
2.420653
 70
    64
  0
VERTEX
  8
WINGS
  5
2F2
 10
-0.482365
 20
17.826494
 30
2.43139
 70
    64
  0
VERTEX
  8
WINGS
  5
2F3
 10
-0.444775
 20
17.999121
 30
2.446615
 70
    64
  0
VERTEX
  8
WINGS
  5
2F4
 10
-0.407206
 20
18.171653
 30
2.462931
 70
    64
  0
VERTEX
  8
WINGS
  5
2F5
 10
-0.369624
 20
18.34424
 30
2.478624
 70
    64
  0
VERTEX
  8
WINGS
  5
2F6
 10
-0.331995
 20
18.517047
 30
2.491462
 70
    64
  0
VERTEX
  8
WINGS
  5
2F7
 10
-0.293526
 20
18.69371
 30
2.506093
 70
    64
  0
SEQEND
  8
WINGS
  5
2F8
  0
POLYLINE
  8
WINGS
  5
2F9
 66
     1
 10
0.0
 20
0.0
 30
0.0
 70
    16
 71
     7
 72
    11
  0
VERTEX
  8
WINGS
  5
2FA
 10
-12.580612
 20
8.950456
 30
0.952561
 70
    64
  0
VERTEX
  8
WINGS
  5
2FB
 10
-12.616839
 20
9.09622
 30
0.941574
 70
    64
  0
VERTEX
  8
WINGS
  5
2FC
 10
-12.628687
 20
9.192443
 30
0.941574
 70
    64
  0
VERTEX
  8
WINGS
  5
2FD
 10
-12.632208
 20
9.289367
 30
0.941574
 70
    64
  0
VERTEX
  8
WINGS
  5
2FE
 10
-12.631571
 20
9.386364
 30
0.941574
 70
    64
  0
VERTEX
  8
WINGS
  5
2FF
 10
-12.628458
 20
9.483314
 30
0.941574
 70
    64
  0
VERTEX
  8
WINGS
  5
300
 10
-12.623
 20
9.580162
 30
0.941574
 70
    64
  0
VERTEX
  8
WINGS
  5
301
 10
-12.615813
 20
9.676897
 30
0.941574
 70
    64
  0
VERTEX
  8
WINGS
  5
302
 10
-12.6071
 20
9.773508
 30
0.941574
 70
    64
  0
VERTEX
  8
WINGS
  5
303
 10
-12.597376
 20
9.870022
 30
0.941574
 70
    64
  0
VERTEX
  8
WINGS
  5
304
 10
-12.586868
 20
9.966455
 30
0.941574
 70
    64
  0
VERTEX
  8
WINGS
  5
305
 10
-12.580612
 20
8.950456
 30
0.952561
 70
    64
  0
VERTEX
  8
WINGS
  5
306
 10
-12.580612
 20
9.035142
 30
0.907809
 70
    64
  0
VERTEX
  8
WINGS
  5
307
 10
-12.580612
 20
9.138749
 30
0.893672
 70
    64
  0
VERTEX
  8
WINGS
  5
308
 10
-12.580612
 20
9.243255
 30
0.889212
 70
    64
  0
VERTEX
  8
WINGS
  5
309
 10
-12.580612
 20
9.347848
 30
0.89117
 70
    64
  0
VERTEX
  8
WINGS
  5
30A
 10
-12.580612
 20
9.45228
 30
0.897506
 70
    64
  0
VERTEX
  8
WINGS
  5
30B
 10
-12.580612
 20
9.556523
 30
0.906489
 70
    64
  0
VERTEX
  8
WINGS
  5
30C
 10
-12.580612
 20
9.660709
 30
0.916116
 70
    64
  0
VERTEX
  8
WINGS
  5
30D
 10
-12.580612
 20
9.764928
 30
0.925376
 70
    64
  0
VERTEX
  8
WINGS
  5
30E
 10
-12.580612
 20
9.86928
 30
0.93295
 70
    64
  0
VERTEX
  8
WINGS
  5
30F
 10
-12.580612
 20
9.973801
 30
0.93753
 70
    64
  0
VERTEX
  8
WINGS
  5
310
 10
-11.580783
 20
8.711923
 30
0.879836
 70
    64
  0
VERTEX
  8
WINGS
  5
311
 10
-11.580783
 20
8.815856
 30
0.824914
 70
    64
  0
VERTEX
  8
WINGS
  5
312
 10
-11.580783
 20
8.94301
 30
0.807563
 70
    64
  0
VERTEX
  8
WINGS
  5
313
 10
-11.580783
 20
9.071267
 30
0.802089
 70
    64
  0
VERTEX
  8
WINGS
  5
314
 10
-11.580783
 20
9.199632
 30
0.804493
 70
    64
  0
VERTEX
  8
WINGS
  5
315
 10
-11.580783
 20
9.327798
 30
0.812268
 70
    64
  0
VERTEX
  8
WINGS
  5
316
 10
-11.580783
 20
9.455732
 30
0.823293
 70
    64
  0
VERTEX
  8
WINGS
  5
317
 10
-11.580783
 20
9.583597
 30
0.835108
 70
    64
  0
VERTEX
  8
WINGS
  5
318
 10
-11.580783
 20
9.711503
 30
0.846472
 70
    64
  0
VERTEX
  8
WINGS
  5
319
 10
-11.580783
 20
9.839571
 30
0.855769
 70
    64
  0
VERTEX
  8
WINGS
  5
31A
 10
-11.580783
 20
9.967847
 30
0.861389
 70
    64
  0
VERTEX
  8
WINGS
  5
31B
 10
-10.580954
 20
8.473391
 30
0.807112
 70
    64
  0
VERTEX
  8
WINGS
  5
31C
 10
-10.580954
 20
8.59657
 30
0.742018
 70
    64
  0
VERTEX
  8
WINGS
  5
31D
 10
-10.580954
 20
8.747272
 30
0.721454
 70
    64
  0
VERTEX
  8
WINGS
  5
31E
 10
-10.580954
 20
8.89928
 30
0.714967
 70
    64
  0
VERTEX
  8
WINGS
  5
31F
 10
-10.580954
 20
9.051415
 30
0.717816
 70
    64
  0
VERTEX
  8
WINGS
  5
320
 10
-10.580954
 20
9.203316
 30
0.727031
 70
    64
  0
VERTEX
  8
WINGS
  5
321
 10
-10.580954
 20
9.354942
 30
0.740097
 70
    64
  0
VERTEX
  8
WINGS
  5
322
 10
-10.580954
 20
9.506486
 30
0.7541
 70
    64
  0
VERTEX
  8
WINGS
  5
323
 10
-10.580954
 20
9.658077
 30
0.767569
 70
    64
  0
VERTEX
  8
WINGS
  5
324
 10
-10.580954
 20
9.809862
 30
0.778587
 70
    64
  0
VERTEX
  8
WINGS
  5
325
 10
-10.580954
 20
9.961893
 30
0.785248
 70
    64
  0
VERTEX
  8
WINGS
  5
326
 10
-9.581134
 20
8.221227
 30
0.707844
 70
    64
  0
VERTEX
  8
WINGS
  5
327
 10
-9.581134
 20
8.364753
 30
0.631998
 70
    64
  0
VERTEX
  8
WINGS
  5
328
 10
-9.581134
 20
8.540348
 30
0.608038
 70
    64
  0
VERTEX
  8
WINGS
  5
329
 10
-9.581134
 20
8.717465
 30
0.600479
 70
    64
  0
VERTEX
  8
WINGS
  5
32A
 10
-9.581134
 20
8.89473
 30
0.603798
 70
    64
  0
VERTEX
  8
WINGS
  5
32B
 10
-9.581134
 20
9.071721
 30
0.614535
 70
    64
  0
VERTEX
  8
WINGS
  5
32C
 10
-9.581134
 20
9.248392
 30
0.62976
 70
    64
  0
VERTEX
  8
WINGS
  5
32D
 10
-9.581134
 20
9.424968
 30
0.646076
 70
    64
  0
VERTEX
  8
WINGS
  5
32E
 10
-9.581134
 20
9.601599
 30
0.66177
 70
    64
  0
VERTEX
  8
WINGS
  5
32F
 10
-9.581134
 20
9.778455
 30
0.674608
 70
    64
  0
VERTEX
  8
WINGS
  5
330
 10
-9.581134
 20
9.959258
 30
0.689238
 70
    64
  0
VERTEX
  8
WINGS
  5
331
 10
-8.581325
 20
7.955434
 30
0.656657
 70
    64
  0
VERTEX
  8
WINGS
  5
332
 10
-8.581325
 20
8.120406
 30
0.569478
 70
    64
  0
VERTEX
  8
WINGS
  5
333
 10
-8.581325
 20
8.322239
 30
0.541938
 70
    64
  0
VERTEX
  8
WINGS
  5
334
 10
-8.581325
 20
8.525821
 30
0.533249
 70
    64
  0
VERTEX
  8
WINGS
  5
335
 10
-8.581325
 20
8.729574
 30
0.537064
 70
    64
  0
VERTEX
  8
WINGS
  5
336
 10
-8.581325
 20
8.933012
 30
0.549406
 70
    64
  0
VERTEX
  8
WINGS
  5
337
 10
-8.581325
 20
9.136083
 30
0.566906
 70
    64
  0
VERTEX
  8
WINGS
  5
338
 10
-8.581325
 20
9.339043
 30
0.58566
 70
    64
  0
VERTEX
  8
WINGS
  5
339
 10
-8.581325
 20
9.542067
 30
0.603698
 70
    64
  0
VERTEX
  8
WINGS
  5
33A
 10
-8.581325
 20
9.745351
 30
0.618454
 70
    64
  0
VERTEX
  8
WINGS
  5
33B
 10
-8.581325
 20
9.948964
 30
0.627375
 70
    64
  0
VERTEX
  8
WINGS
  5
33C
 10
-7.581507
 20
7.700999
 30
0.596496
 70
    64
  0
VERTEX
  8
WINGS
  5
33D
 10
-7.581507
 20
7.886501
 30
0.498468
 70
    64
  0
VERTEX
  8
WINGS
  5
33E
 10
-7.581507
 20
8.113451
 30
0.4675
 70
    64
  0
VERTEX
  8
WINGS
  5
33F
 10
-7.581507
 20
8.342368
 30
0.45773
 70
    64
  0
VERTEX
  8
WINGS
  5
340
 10
-7.581507
 20
8.571477
 30
0.462021
 70
    64
  0
VERTEX
  8
WINGS
  5
341
 10
-7.581507
 20
8.800232
 30
0.475898
 70
    64
  0
VERTEX
  8
WINGS
  5
342
 10
-7.581507
 20
9.028574
 30
0.495576
 70
    64
  0
VERTEX
  8
WINGS
  5
343
 10
-7.581507
 20
9.256791
 30
0.516663
 70
    64
  0
VERTEX
  8
WINGS
  5
344
 10
-7.581507
 20
9.48508
 30
0.536947
 70
    64
  0
VERTEX
  8
WINGS
  5
345
 10
-7.581507
 20
9.713661
 30
0.553539
 70
    64
  0
VERTEX
  8
WINGS
  5
346
 10
-7.581507
 20
9.942612
 30
0.56357
 70
    64
  0
SEQEND
  8
WINGS
  5
347
  0
POLYLINE
  8
WINGS
  5
348
 66
     1
 10
0.0
 20
0.0
 30
0.0
 70
    16
 71
     7
 72
    11
  0
VERTEX
  8
WINGS
  5
349
 10
-7.581507
 20
7.700999
 30
0.596496
 70
    64
  0
VERTEX
  8
WINGS
  5
34A
 10
-7.581507
 20
7.886501
 30
0.498468
 70
    64
  0
VERTEX
  8
WINGS
  5
34B
 10
-7.581507
 20
8.113451
 30
0.4675
 70
    64
  0
VERTEX
  8
WINGS
  5
34C
 10
-7.581507
 20
8.342368
 30
0.45773
 70
    64
  0
VERTEX
  8
WINGS
  5
34D
 10
-7.581507
 20
8.571477
 30
0.462021
 70
    64
  0
VERTEX
  8
WINGS
  5
34E
 10
-7.581507
 20
8.800232
 30
0.475898
 70
    64
  0
VERTEX
  8
WINGS
  5
34F
 10
-7.581507
 20
9.028574
 30
0.495576
 70
    64
  0
VERTEX
  8
WINGS
  5
350
 10
-7.581507
 20
9.256791
 30
0.516663
 70
    64
  0
VERTEX
  8
WINGS
  5
351
 10
-7.581507
 20
9.48508
 30
0.536947
 70
    64
  0
VERTEX
  8
WINGS
  5
352
 10
-7.581507
 20
9.713661
 30
0.553539
 70
    64
  0
VERTEX
  8
WINGS
  5
353
 10
-7.581507
 20
9.942612
 30
0.56357
 70
    64
  0
VERTEX
  8
WINGS
  5
354
 10
-6.581696
 20
7.437477
 30
0.506202
 70
    64
  0
VERTEX
  8
WINGS
  5
355
 10
-6.581696
 20
7.644242
 30
0.396938
 70
    64
  0
VERTEX
  8
WINGS
  5
356
 10
-6.581696
 20
7.897206
 30
0.362421
 70
    64
  0
VERTEX
  8
WINGS
  5
357
 10
-6.581696
 20
8.152363
 30
0.351531
 70
    64
  0
VERTEX
  8
WINGS
  5
358
 10
-6.581696
 20
8.407733
 30
0.356313
 70
    64
  0
VERTEX
  8
WINGS
  5
359
 10
-6.581696
 20
8.662709
 30
0.371781
 70
    64
  0
VERTEX
  8
WINGS
  5
35A
 10
-6.581696
 20
8.917224
 30
0.393714
 70
    64
  0
VERTEX
  8
WINGS
  5
35B
 10
-6.581696
 20
9.171601
 30
0.417219
 70
    64
  0
VERTEX
  8
WINGS
  5
35C
 10
-6.581696
 20
9.426058
 30
0.439827
 70
    64
  0
VERTEX
  8
WINGS
  5
35D
 10
-6.581696
 20
9.68084
 30
0.458322
 70
    64
  0
VERTEX
  8
WINGS
  5
35E
 10
-6.581696
 20
9.936034
 30
0.469502
 70
    64
  0
VERTEX
  8
WINGS
  5
35F
 10
-5.581891
 20
7.164868
 30
0.4604
 70
    64
  0
VERTEX
  8
WINGS
  5
360
 10
-5.581891
 20
7.39363
 30
0.339512
 70
    64
  0
VERTEX
  8
WINGS
  5
361
 10
-5.581891
 20
7.673505
 30
0.301322
 70
    64
  0
VERTEX
  8
WINGS
  5
362
 10
-5.581891
 20
7.955806
 30
0.289274
 70
    64
  0
VERTEX
  8
WINGS
  5
363
 10
-5.581891
 20
8.238343
 30
0.294565
 70
    64
  0
VERTEX
  8
WINGS
  5
364
 10
-5.581891
 20
8.520444
 30
0.311678
 70
    64
  0
VERTEX
  8
WINGS
  5
365
 10
-5.581891
 20
8.802035
 30
0.335945
 70
    64
  0
VERTEX
  8
WINGS
  5
366
 10
-5.581891
 20
9.083474
 30
0.36195
 70
    64
  0
VERTEX
  8
WINGS
  5
367
 10
-5.581891
 20
9.365
 30
0.386964
 70
    64
  0
VERTEX
  8
WINGS
  5
368
 10
-5.581891
 20
9.646886
 30
0.407425
 70
    64
  0
VERTEX
  8
WINGS
  5
369
 10
-5.581891
 20
9.92923
 30
0.419796
 70
    64
  0
VERTEX
  8
WINGS
  5
36A
 10
-4.58207
 20
6.914977
 30
0.396649
 70
    64
  0
VERTEX
  8
WINGS
  5
36B
 10
-4.58207
 20
7.163902
 30
0.265106
 70
    64
  0
VERTEX
  8
WINGS
  5
36C
 10
-4.58207
 20
7.468445
 30
0.22355
 70
    64
  0
VERTEX
  8
WINGS
  5
36D
 10
-4.58207
 20
7.775628
 30
0.21044
 70
    64
  0
VERTEX
  8
WINGS
  5
36E
 10
-4.58207
 20
8.083069
 30
0.216197
 70
    64
  0
VERTEX
  8
WINGS
  5
36F
 10
-4.58207
 20
8.390034
 30
0.234819
 70
    64
  0
VERTEX
  8
WINGS
  5
370
 10
-4.58207
 20
8.696446
 30
0.261224
 70
    64
  0
VERTEX
  8
WINGS
  5
371
 10
-4.58207
 20
9.00269
 30
0.289522
 70
    64
  0
VERTEX
  8
WINGS
  5
372
 10
-4.58207
 20
9.309031
 30
0.31674
 70
    64
  0
VERTEX
  8
WINGS
  5
373
 10
-4.58207
 20
9.615763
 30
0.339005
 70
    64
  0
VERTEX
  8
WINGS
  5
374
 10
-4.58207
 20
9.922992
 30
0.352466
 70
    64
  0
VERTEX
  8
WINGS
  5
375
 10
-3.582414
 20
6.433459
 30
0.366652
 70
    64
  0
VERTEX
  8
WINGS
  5
376
 10
-3.582414
 20
6.721236
 30
0.214577
 70
    64
  0
VERTEX
  8
WINGS
  5
377
 10
-3.582414
 20
7.073313
 30
0.166536
 70
    64
  0
VERTEX
  8
WINGS
  5
378
 10
-3.582414
 20
7.428443
 30
0.151379
 70
    64
  0
VERTEX
  8
WINGS
  5
379
 10
-3.582414
 20
7.783869
 30
0.158035
 70
    64
  0
VERTEX
  8
WINGS
  5
37A
 10
-3.582414
 20
8.138747
 30
0.179563
 70
    64
  0
VERTEX
  8
WINGS
  5
37B
 10
-3.582414
 20
8.492983
 30
0.21009
 70
    64
  0
VERTEX
  8
WINGS
  5
37C
 10
-3.582414
 20
8.847027
 30
0.242804
 70
    64
  0
VERTEX
  8
WINGS
  5
37D
 10
-3.582414
 20
9.201183
 30
0.274271
 70
    64
  0
VERTEX
  8
WINGS
  5
37E
 10
-3.582414
 20
9.55579
 30
0.300011
 70
    64
  0
VERTEX
  8
WINGS
  5
37F
 10
-3.582414
 20
9.910972
 30
0.315573
 70
    64
  0
VERTEX
  8
WINGS
  5
380
 10
-2.582759
 20
5.951759
 30
0.299487
 70
    64
  0
VERTEX
  8
WINGS
  5
381
 10
-2.582759
 20
6.278404
 30
0.126873
 70
    64
  0
VERTEX
  8
WINGS
  5
382
 10
-2.582759
 20
6.678033
 30
0.072343
 70
    64
  0
VERTEX
  8
WINGS
  5
383
 10
-2.582759
 20
7.081126
 30
0.055139
 70
    64
  0
VERTEX
  8
WINGS
  5
384
 10
-2.582759
 20
7.484557
 30
0.062694
 70
    64
  0
VERTEX
  8
WINGS
  5
385
 10
-2.582759
 20
7.887364
 30
0.087129
 70
    64
  0
VERTEX
  8
WINGS
  5
386
 10
-2.582759
 20
8.289445
 30
0.121779
 70
    64
  0
VERTEX
  8
WINGS
  5
387
 10
-2.582759
 20
8.691306
 30
0.158912
 70
    64
  0
VERTEX
  8
WINGS
  5
388
 10
-2.582759
 20
9.093294
 30
0.194629
 70
    64
  0
VERTEX
  8
WINGS
  5
389
 10
-2.582759
 20
9.495794
 30
0.223845
 70
    64
  0
VERTEX
  8
WINGS
  5
38A
 10
-2.582759
 20
9.898948
 30
0.241509
 70
    64
  0
VERTEX
  8
WINGS
  5
38B
 10
-1.505483
 20
5.45652
 30
0.243019
 70
    64
  0
VERTEX
  8
WINGS
  5
38C
 10
-1.505483
 20
5.823125
 30
0.049288
 70
    64
  0
VERTEX
  8
WINGS
  5
38D
 10
-1.505483
 20
6.271642
 30
-0.011913
 70
    64
  0
VERTEX
  8
WINGS
  5
38E
 10
-1.505483
 20
6.724048
 30
-0.031222
 70
    64
  0
VERTEX
  8
WINGS
  5
38F
 10
-1.505483
 20
7.176831
 30
-0.022742
 70
    64
  0
VERTEX
  8
WINGS
  5
390
 10
-1.505483
 20
7.628916
 30
0.004683
 70
    64
  0
VERTEX
  8
WINGS
  5
391
 10
-1.505483
 20
8.080185
 30
0.043572
 70
    64
  0
VERTEX
  8
WINGS
  5
392
 10
-1.505483
 20
8.531208
 30
0.085247
 70
    64
  0
VERTEX
  8
WINGS
  5
393
 10
-1.505483
 20
8.982372
 30
0.125333
 70
    64
  0
VERTEX
  8
WINGS
  5
394
 10
-1.505483
 20
9.434113
 30
0.158124
 70
    64
  0
VERTEX
  8
WINGS
  5
395
 10
-1.505483
 20
9.895934
 30
0.195495
 70
    64
  0
SEQEND
  8
WINGS
  5
396
  0
ENDBLK
  8
0
  5
397
  0
BLOCK
  8
0
  5
398
  2
AVE_RENDER
 70
    64
 10
0.0
 20
0.0
 30
0.0
  1
AVE_RENDER
  3
AVE_RENDER
  0
ENDBLK
  8
0
  5
399
  0
ENDSEC
  0
SECTION
  2
ENTITIES
  0
POLYLINE
  8
BODY
  5
1
 66
     1
 10
0.0
 20
0.0
 30
0.0
 70
    17
 71
    20
 72
     7
  0
VERTEX
  8
BODY
  5
2
 10
896.993675
 20
55.49018
 30
85.32834
 70
    64
  0
VERTEX
  8
BODY
  5
3
 10
896.993675
 20
48.76007
 30
82.26557
 70
    64
  0
VERTEX
  8
BODY
  5
4
 10
896.993675
 20
42.847653
 30
77.825044
 70
    64
  0
VERTEX
  8
BODY
  5
5
 10
896.993675
 20
38.0305
 30
72.215232
 70
    64
  0
VERTEX
  8
BODY
  5
6
 10
896.993675
 20
34.534764
 30
65.699499
 70
    64
  0
VERTEX
  8
BODY
  5
7
 10
896.993675
 20
32.52456
 30
58.58374
 70
    64
  0
VERTEX
  8
BODY
  5
8
 10
896.993675
 20
32.09426
 30
51.20202
 70
    64
  0
VERTEX
  8
BODY
  5
9
 10
907.539288
 20
55.49018
 30
83.658079
 70
    64
  0
VERTEX
  8
BODY
  5
A
 10
906.59284
 20
48.76007
 30
80.745212
 70
    64
  0
VERTEX
  8
BODY
  5
B
 10
905.220642
 20
42.847653
 30
76.52202
 70
    64
  0
VERTEX
  8
BODY
  5
C
 10
903.487115
 20
38.0305
 30
71.186772
 70
    64
  0
VERTEX
  8
BODY
  5
D
 10
901.473642
 20
34.534764
 30
64.989942
 70
    64
  0
VERTEX
  8
BODY
  5
E
 10
899.274752
 20
32.52456
 30
58.222453
 70
    64
  0
VERTEX
  8
BODY
  5
F
 10
896.993675
 20
32.09426
 30
51.20202
 70
    64
  0
VERTEX
  8
BODY
  5
10
 10
917.052623
 20
55.49018
 30
78.810793
 70
    64
  0
VERTEX
  8
BODY
  5
11
 10
915.252372
 20
48.76007
 30
76.33296
 70
    64
  0
VERTEX
  8
BODY
  5
12
 10
912.642296
 20
42.847653
 30
72.740499
 70
    64
  0
VERTEX
  8
BODY
  5
13
 10
909.344931
 20
38.0305
 30
68.202065
 70
    64
  0
VERTEX
  8
BODY
  5
14
 10
905.515079
 20
34.534764
 30
62.930727
 70
    64
  0
VERTEX
  8
BODY
  5
15
 10
901.332541
 20
32.52456
 30
57.173957
 70
    64
  0
VERTEX
  8
BODY
  5
16
 10
896.993675
 20
32.09426
 30
51.20202
 70
    64
  0
VERTEX
  8
BODY
  5
17
 10
924.602448
 20
55.49018
 30
71.260968
 70
    64
  0
VERTEX
  8
BODY
  5
18
 10
922.124615
 20
48.76007
 30
69.460717
 70
    64
  0
VERTEX
  8
BODY
  5
19
 10
918.532154
 20
42.847653
 30
66.850641
 70
    64
  0
VERTEX
  8
BODY
  5
1A
 10
913.993721
 20
38.0305
 30
63.553276
 70
    64
  0
VERTEX
  8
BODY
  5
1B
 10
908.722382
 20
34.534764
 30
59.723424
 70
    64
  0
VERTEX
  8
BODY
  5
1C
 10
902.965612
 20
32.52456
 30
55.540886
 70
    64
  0
VERTEX
  8
BODY
  5
1D
 10
896.993675
 20
32.09426
 30
51.20202
 70
    64
  0
VERTEX
  8
BODY
  5
1E
 10
929.449734
 20
55.49018
 30
61.747633
 70
    64
  0
VERTEX
  8
BODY
  5
1F
 10
926.536867
 20
48.76007
 30
60.801185
 70
    64
  0
VERTEX
  8
BODY
  5
20
 10
922.313675
 20
42.847653
 30
59.428987
 70
    64
  0
VERTEX
  8
BODY
  5
21
 10
916.978427
 20
38.0305
 30
57.69546
 70
    64
  0
VERTEX
  8
BODY
  5
22
 10
910.781597
 20
34.534764
 30
55.681987
 70
    64
  0
VERTEX
  8
BODY
  5
23
 10
904.014108
 20
32.52456
 30
53.483097
 70
    64
  0
VERTEX
  8
BODY
  5
24
 10
896.993675
 20
32.09426
 30
51.20202
 70
    64
  0
VERTEX
  8
BODY
  5
25
 10
931.119995
 20
55.49018
 30
51.20202
 70
    64
  0
VERTEX
  8
BODY
  5
26
 10
928.057225
 20
48.76007
 30
51.20202
 70
    64
  0
VERTEX
  8
BODY
  5
27
 10
923.616699
 20
42.847653
 30
51.20202
 70
    64
  0
VERTEX
  8
BODY
  5
28
 10
918.006887
 20
38.0305
 30
51.20202
 70
    64
  0
VERTEX
  8
BODY
  5
29
 10
911.491154
 20
34.534764
 30
51.20202
 70
    64
  0
VERTEX
  8
BODY
  5
2A
 10
904.375395
 20
32.52456
 30
51.20202
 70
    64
  0
VERTEX
  8
BODY
  5
2B
 10
896.993675
 20
32.09426
 30
51.20202
 70
    64
  0
VERTEX
  8
BODY
  5
2C
 10
929.449734
 20
55.49018
 30
40.656407
 70
    64
  0
VERTEX
  8
BODY
  5
2D
 10
926.536867
 20
48.76007
 30
41.602855
 70
    64
  0
VERTEX
  8
BODY
  5
2E
 10
922.313675
 20
42.847653
 30
42.975053
 70
    64
  0
VERTEX
  8
BODY
  5
2F
 10
916.978427
 20
38.0305
 30
44.70858
 70
    64
  0
VERTEX
  8
BODY
  5
30
 10
910.781597
 20
34.534764
 30
46.722053
 70
    64
  0
VERTEX
  8
BODY
  5
31
 10
904.014108
 20
32.52456
 30
48.920943
 70
    64
  0
VERTEX
  8
BODY
  5
32
 10
896.993675
 20
32.09426
 30
51.20202
 70
    64
  0
VERTEX
  8
BODY
  5
33
 10
924.602448
 20
55.49018
 30
31.143072
 70
    64
  0
VERTEX
  8
BODY
  5
34
 10
922.124615
 20
48.76007
 30
32.943323
 70
    64
  0
VERTEX
  8
BODY
  5
35
 10
918.532154
 20
42.847653
 30
35.553399
 70
    64
  0
VERTEX
  8
BODY
  5
36
 10
913.993721
 20
38.0305
 30
38.850764
 70
    64
  0
VERTEX
  8
BODY
  5
37
 10
908.722382
 20
34.534764
 30
42.680616
 70
    64
  0
VERTEX
  8
BODY
  5
38
 10
902.965612
 20
32.52456
 30
46.863154
 70
    64
  0
VERTEX
  8
BODY
  5
39
 10
896.993675
 20
32.09426
 30
51.20202
 70
    64
  0
VERTEX
  8
BODY
  5
3A
 10
917.052623
 20
55.49018
 30
23.593247
 70
    64
  0
VERTEX
  8
BODY
  5
3B
 10
915.252372
 20
48.76007
 30
26.07108
 70
    64
  0
VERTEX
  8
BODY
  5
3C
 10
912.642296
 20
42.847653
 30
29.663541
 70
    64
  0
VERTEX
  8
BODY
  5
3D
 10
909.344931
 20
38.0305
 30
34.201975
 70
    64
  0
VERTEX
  8
BODY
  5
3E
 10
905.515079
 20
34.534764
 30
39.473313
 70
    64
  0
VERTEX
  8
BODY
  5
3F
 10
901.332541
 20
32.52456
 30
45.230083
 70
    64
  0
VERTEX
  8
BODY
  5
40
 10
896.993675
 20
32.09426
 30
51.20202
 70
    64
  0
VERTEX
  8
BODY
  5
41
 10
907.539288
 20
55.49018
 30
18.745961
 70
    64
  0
VERTEX
  8
BODY
  5
42
 10
906.59284
 20
48.76007
 30
21.658828
 70
    64
  0
VERTEX
  8
BODY
  5
43
 10
905.220642
 20
42.847653
 30
25.88202
 70
    64
  0
VERTEX
  8
BODY
  5
44
 10
903.487115
 20
38.0305
 30
31.217268
 70
    64
  0
VERTEX
  8
BODY
  5
45
 10
901.473642
 20
34.534764
 30
37.414098
 70
    64
  0
VERTEX
  8
BODY
  5
46
 10
899.274752
 20
32.52456
 30
44.181587
 70
    64
  0
VERTEX
  8
BODY
  5
47
 10
896.993675
 20
32.09426
 30
51.20202
 70
    64
  0
VERTEX
  8
BODY
  5
48
 10
896.993675
 20
55.49018
 30
17.0757
 70
    64
  0
VERTEX
  8
BODY
  5
49
 10
896.993675
 20
48.76007
 30
20.13847
 70
    64
  0
VERTEX
  8
BODY
  5
4A
 10
896.993675
 20
42.847653
 30
24.578996
 70
    64
  0
VERTEX
  8
BODY
  5
4B
 10
896.993675
 20
38.0305
 30
30.188808
 70
    64
  0
VERTEX
  8
BODY
  5
4C
 10
896.993675
 20
34.534764
 30
36.704541
 70
    64
  0
VERTEX
  8
BODY
  5
4D
 10
896.993675
 20
32.52456
 30
43.8203
 70
    64
  0
VERTEX
  8
BODY
  5
4E
 10
896.993675
 20
32.09426
 30
51.20202
 70
    64
  0
VERTEX
  8
BODY
  5
4F
 10
886.448062
 20
55.49018
 30
18.745961
 70
    64
  0
VERTEX
  8
BODY
  5
50
 10
887.39451
 20
48.76007
 30
21.658828
 70
    64
  0
VERTEX
  8
BODY
  5
51
 10
888.766708
 20
42.847653
 30
25.88202
 70
    64
  0
VERTEX
  8
BODY
  5
52
 10
890.500236
 20
38.0305
 30
31.217268
 70
    64
  0
VERTEX
  8
BODY
  5
53
 10
892.513708
 20
34.534764
 30
37.414098
 70
    64
  0
VERTEX
  8
BODY
  5
54
 10
894.712598
 20
32.52456
 30
44.181587
 70
    64
  0
VERTEX
  8
BODY
  5
55
 10
896.993675
 20
32.09426
 30
51.20202
 70
    64
  0
VERTEX
  8
BODY
  5
56
 10
876.934727
 20
55.49018
 30
23.593247
 70
    64
  0
VERTEX
  8
BODY
  5
57
 10
878.734979
 20
48.76007
 30
26.07108
 70
    64
  0
VERTEX
  8
BODY
  5
58
 10
881.345054
 20
42.847653
 30
29.663541
 70
    64
  0
VERTEX
  8
BODY
  5
59
 10
884.642419
 20
38.0305
 30
34.201975
 70
    64
  0
VERTEX
  8
BODY
  5
5A
 10
888.472271
 20
34.534764
 30
39.473313
 70
    64
  0
VERTEX
  8
BODY
  5
5B
 10
892.654809
 20
32.52456
 30
45.230083
 70
    64
  0
VERTEX
  8
BODY
  5
5C
 10
896.993675
 20
32.09426
 30
51.20202
 70
    64
  0
VERTEX
  8
BODY
  5
5D
 10
869.384902
 20
55.49018
 30
31.143072
 70
    64
  0
VERTEX
  8
BODY
  5
5E
 10
871.862735
 20
48.76007
 30
32.943323
 70
    64
  0
VERTEX
  8
BODY
  5
5F
 10
875.455196
 20
42.847653
 30
35.553399
 70
    64
  0
VERTEX
  8
BODY
  5
60
 10
879.99363
 20
38.0305
 30
38.850764
 70
    64
  0
VERTEX
  8
BODY
  5
61
 10
885.264968
 20
34.534764
 30
42.680616
 70
    64
  0
VERTEX
  8
BODY
  5
62
 10
891.021738
 20
32.52456
 30
46.863154
 70
    64
  0
VERTEX
  8
BODY
  5
63
 10
896.993675
 20
32.09426
 30
51.20202
 70
    64
  0
VERTEX
  8
BODY
  5
64
 10
864.537616
 20
55.49018
 30
40.656407
 70
    64
  0
VERTEX
  8
BODY
  5
65
 10
867.450484
 20
48.76007
 30
41.602855
 70
    64
  0
VERTEX
  8
BODY
  5
66
 10
871.673675
 20
42.847653
 30
42.975053
 70
    64
  0
VERTEX
  8
BODY
  5
67
 10
877.008923
 20
38.0305
 30
44.70858
 70
    64
  0
VERTEX
  8
BODY
  5
68
 10
883.205753
 20
34.534764
 30
46.722053
 70
    64
  0
VERTEX
  8
BODY
  5
69
 10
889.973242
 20
32.52456
 30
48.920943
 70
    64
  0
VERTEX
  8
BODY
  5
6A
 10
896.993675
 20
32.09426
 30
51.20202
 70
    64
  0
VERTEX
  8
BODY
  5
6B
 10
862.867355
 20
55.49018
 30
51.20202
 70
    64
  0
VERTEX
  8
BODY
  5
6C
 10
865.930125
 20
48.76007
 30
51.20202
 70
    64
  0
VERTEX
  8
BODY
  5
6D
 10
870.370651
 20
42.847653
 30
51.20202
 70
    64
  0
VERTEX
  8
BODY
  5
6E
 10
875.980463
 20
38.0305
 30
51.20202
 70
    64
  0
VERTEX
  8
BODY
  5
6F
 10
882.496196
 20
34.534764
 30
51.20202
 70
    64
  0
VERTEX
  8
BODY
  5
70
 10
889.611955
 20
32.52456
 30
51.20202
 70
    64
  0
VERTEX
  8
BODY
  5
71
 10
896.993675
 20
32.09426
 30
51.20202
 70
    64
  0
VERTEX
  8
BODY
  5
72
 10
864.537616
 20
55.49018
 30
61.747633
 70
    64
  0
VERTEX
  8
BODY
  5
73
 10
867.450484
 20
48.76007
 30
60.801185
 70
    64
  0
VERTEX
  8
BODY
  5
74
 10
871.673675
 20
42.847653
 30
59.428987
 70
    64
  0
VERTEX
  8
BODY
  5
75
 10
877.008923
 20
38.0305
 30
57.69546
 70
    64
  0
VERTEX
  8
BODY
  5
76
 10
883.205753
 20
34.534764
 30
55.681987
 70
    64
  0
VERTEX
  8
BODY
  5
77
 10
889.973242
 20
32.52456
 30
53.483097
 70
    64
  0
VERTEX
  8
BODY
  5
78
 10
896.993675
 20
32.09426
 30
51.20202
 70
    64
  0
VERTEX
  8
BODY
  5
79
 10
869.384902
 20
55.49018
 30
71.260968
 70
    64
  0
VERTEX
  8
BODY
  5
7A
 10
871.862735
 20
48.76007
 30
69.460717
 70
    64
  0
VERTEX
  8
BODY
  5
7B
 10
875.455196
 20
42.847653
 30
66.850641
 70
    64
  0
VERTEX
  8
BODY
  5
7C
 10
879.99363
 20
38.0305
 30
63.553276
 70
    64
  0
VERTEX
  8
BODY
  5
7D
 10
885.264968
 20
34.534764
 30
59.723424
 70
    64
  0
VERTEX
  8
BODY
  5
7E
 10
891.021738
 20
32.52456
 30
55.540886
 70
    64
  0
VERTEX
  8
BODY
  5
7F
 10
896.993675
 20
32.09426
 30
51.20202
 70
    64
  0
VERTEX
  8
BODY
  5
80
 10
876.934727
 20
55.49018
 30
78.810793
 70
    64
  0
VERTEX
  8
BODY
  5
81
 10
878.734979
 20
48.76007
 30
76.33296
 70
    64
  0
VERTEX
  8
BODY
  5
82
 10
881.345054
 20
42.847653
 30
72.740499
 70
    64
  0
VERTEX
  8
BODY
  5
83
 10
884.642419
 20
38.0305
 30
68.202065
 70
    64
  0
VERTEX
  8
BODY
  5
84
 10
888.472271
 20
34.534764
 30
62.930727
 70
    64
  0
VERTEX
  8
BODY
  5
85
 10
892.654809
 20
32.52456
 30
57.173957
 70
    64
  0
VERTEX
  8
BODY
  5
86
 10
896.993675
 20
32.09426
 30
51.20202
 70
    64
  0
VERTEX
  8
BODY
  5
87
 10
886.448062
 20
55.49018
 30
83.658079
 70
    64
  0
VERTEX
  8
BODY
  5
88
 10
887.39451
 20
48.76007
 30
80.745212
 70
    64
  0
VERTEX
  8
BODY
  5
89
 10
888.766708
 20
42.847653
 30
76.52202
 70
    64
  0
VERTEX
  8
BODY
  5
8A
 10
890.500236
 20
38.0305
 30
71.186772
 70
    64
  0
VERTEX
  8
BODY
  5
8B
 10
892.513708
 20
34.534764
 30
64.989942
 70
    64
  0
VERTEX
  8
BODY
  5
8C
 10
894.712598
 20
32.52456
 30
58.222453
 70
    64
  0
VERTEX
  8
BODY
  5
8D
 10
896.993675
 20
32.09426
 30
51.20202
 70
    64
  0
SEQEND
  8
BODY
  5
8E
  0
INSERT
  8
0
 62
     1
  5
8F
  2
HALF-PLANE
 10
896.993675
 20
115.49018
 30
0.0
 41
-60.0
 42
60.0
 43
60.0
  0
INSERT
  8
0
 62
     1
  5
90
  2
HALF-PLANE
 10
896.993675
 20
115.49018
 30
0.0
 41
60.0
 42
60.0
 43
60.0
  0
POINT
  8
0
  5
91
 10
-2.0
 20
-2.0
 30
0.0
  0
INSERT
  8
ASHADE
 62
     1
  5
39A
  2
AVE_RENDER
 10
0.0
 20
0.0
 30
0.0
1001
AVE_RENDER
1002
{
1070
     2
1000
Pref
1070
    30
1070
    20
1070
     0
1070
     0
1000

1070
    10
1070
     0
1070
    30
1040
1.0
1070
     1
1040
0.3
1040
0.7
1040
0.0
1040
10.0
1010
-1.0
1020
-1.0
1030
-1.0
1040
0.3
1070
    49
1002
}
  0
INSERT
  8
ASHADE
 62
     3
  5
39B
  2
AVE_RENDER
 10
0.0
 20
0.0
 30
0.0
1001
AVE_RENDER
1002
{
1070
     0
1000
Full Opt
1070
     0
1070
     1
1070
     1
1070
     1
1070
     0
1070
     0
1070
     0
1070
     1
1070
     1
1040
0.0001
1040
0.0001
1002
}
  0
INSERT
  8
ASHADE
 62
     4
  5
39C
  2
AVE_RENDER
 10
0.0
 20
0.0
 30
0.0
1001
AVE_RENDER
1002
{
1070
     0
1000
Quick Opt
1070
     0
1070
     1
1070
     1
1070
     1
1070
     0
1070
     0
1070
     1
1002
}
  0
ENDSEC
  0
EOF
